  0
SECTION
  2
HEADER
  9
$ACADVER
  1
AC1015
  9
$ACADMAINTVER
 70
     6
  9
$DWGCODEPAGE
  3
ANSI_1254
  9
$INSBASE
 10
0.0
 20
0.0
 30
0.0
  9
$EXTMIN
 10
0.0
 20
0.0
 30
0.0
  9
$EXTMAX
 10
279.4
 20
215.9
 30
0.0
  9
$LIMMIN
 10
0.0
 20
0.0
  9
$LIMMAX
 10
279.4
 20
215.9
  9
$ORTHOMODE
 70
     0
  9
$REGENMODE
 70
     1
  9
$FILLMODE
 70
     1
  9
$QTEXTMODE
 70
     0
  9
$MIRRTEXT
 70
     1
  9
$LTSCALE
 40
1.0
  9
$ATTMODE
 70
     1
  9
$TEXTSIZE
 40
3.5
  9
$TRACEWID
 40
1.0
  9
$TEXTSTYLE
  7
Standard
  9
$CLAYER
  8
0
  9
$CELTYPE
  6
ByLayer
  9
$CECOLOR
 62
   256
  9
$CELTSCALE
 40
1.0
  9
$DISPSILH
 70
     0
  9
$DIMSCALE
 40
1.0
  9
$DIMASZ
 40
3.5
  9
$DIMEXO
 40
1.0
  9
$DIMDLI
 40
3.75
  9
$DIMRND
 40
0.0
  9
$DIMDLE
 40
0.0
  9
$DIMEXE
 40
1.0
  9
$DIMTP
 40
0.0
  9
$DIMTM
 40
0.0
  9
$DIMTXT
 40
3.5
  9
$DIMCEN
 40
2.5
  9
$DIMTSZ
 40
0.0
  9
$DIMTOL
 70
     0
  9
$DIMLIM
 70
     0
  9
$DIMTIH
 70
     1
  9
$DIMTOH
 70
     1
  9
$DIMSE1
 70
     0
  9
$DIMSE2
 70
     0
  9
$DIMTAD
 70
     1
  9
$DIMZIN
 70
     0
  9
$DIMBLK
  1

  9
$DIMASO
 70
     1
  9
$DIMSHO
 70
     1
  9
$DIMPOST
  1

  9
$DIMAPOST
  1

  9
$DIMALT
 70
     0
  9
$DIMALTD
 70
     3
  9
$DIMALTF
 40
0.0393700787
  9
$DIMLFAC
 40
1.0
  9
$DIMTOFL
 70
     1
  9
$DIMTVP
 40
0.0
  9
$DIMTIX
 70
     0
  9
$DIMSOXD
 70
     0
  9
$DIMSAH
 70
     0
  9
$DIMBLK1
  1

  9
$DIMBLK2
  1

  9
$DIMSTYLE
  2
ISO-25
  9
$DIMCLRD
 70
     0
  9
$DIMCLRE
 70
     0
  9
$DIMCLRT
 70
     0
  9
$DIMTFAC
 40
1.0
  9
$DIMGAP
 40
1.524
  9
$DIMJUST
 70
     0
  9
$DIMSD1
 70
     0
  9
$DIMSD2
 70
     0
  9
$DIMTOLJ
 70
     0
  9
$DIMTZIN
 70
     0
  9
$DIMALTZ
 70
     0
  9
$DIMALTTZ
 70
     0
  9
$DIMUPT
 70
     0
  9
$DIMDEC
 70
     2
  9
$DIMTDEC
 70
     2
  9
$DIMALTU
 70
     2
  9
$DIMALTTD
 70
     3
  9
$DIMTXSTY
  7
Standard
  9
$DIMAUNIT
 70
     0
  9
$DIMADEC
 70
     2
  9
$DIMALTRND
 40
0.0
  9
$DIMAZIN
 70
     0
  9
$DIMDSEP
 70
    44
  9
$DIMATFIT
 70
     3
  9
$DIMFRAC
 70
     0
  9
$DIMLDRBLK
  1

  9
$DIMLUNIT
 70
     2
  9
$DIMLWD
 70
    -2
  9
$DIMLWE
 70
    -2
  9
$DIMTMOVE
 70
     0
  9
$LUNITS
 70
     2
  9
$LUPREC
 70
     2
  9
$SKETCHINC
 40
1.0
  9
$FILLETRAD
 40
10.0
  9
$AUNITS
 70
     0
  9
$AUPREC
 70
     2
  9
$MENU
  1
.
  9
$ELEVATION
 40
0.0
  9
$PELEVATION
 40
0.0
  9
$THICKNESS
 40
0.0
  9
$LIMCHECK
 70
     0
  9
$CHAMFERA
 40
0.0
  9
$CHAMFERB
 40
0.0
  9
$CHAMFERC
 40
0.0
  9
$CHAMFERD
 40
0.0
  9
$SKPOLY
 70
     0
  9
$TDCREATE
 40
2459935.709534479
  9
$TDUCREATE
 40
2459935.584534479
  9
$TDUPDATE
 40
2459935.709534676
  9
$TDUUPDATE
 40
2459935.584534676
  9
$TDINDWG
 40
0.0000000116
  9
$TDUSRTIMER
 40
0.0000000116
  9
$USRTIMER
 70
     1
  9
$ANGBASE
 50
0.0
  9
$ANGDIR
 70
     0
  9
$PDMODE
 70
     0
  9
$PDSIZE
 40
-1.0
  9
$PLINEWID
 40
0.0
  9
$SPLFRAME
 70
     0
  9
$SPLINETYPE
 70
     6
  9
$SPLINESEGS
 70
     8
  9
$HANDSEED
  5
12A
  9
$SURFTAB1
 70
     6
  9
$SURFTAB2
 70
     6
  9
$SURFTYPE
 70
     6
  9
$SURFU
 70
     6
  9
$SURFV
 70
     6
  9
$UCSBASE
  2

  9
$UCSNAME
  2

  9
$UCSORG
 10
0.0
 20
0.0
 30
0.0
  9
$UCSXDIR
 10
1.0
 20
0.0
 30
0.0
  9
$UCSYDIR
 10
0.0
 20
1.0
 30
0.0
  9
$UCSORTHOREF
  2

  9
$UCSORTHOVIEW
 70
     0
  9
$UCSORGTOP
 10
0.0
 20
0.0
 30
0.0
  9
$UCSORGBOTTOM
 10
0.0
 20
0.0
 30
0.0
  9
$UCSORGLEFT
 10
0.0
 20
0.0
 30
0.0
  9
$UCSORGRIGHT
 10
0.0
 20
0.0
 30
0.0
  9
$UCSORGFRONT
 10
0.0
 20
0.0
 30
0.0
  9
$UCSORGBACK
 10
0.0
 20
0.0
 30
0.0
  9
$PUCSBASE
  2

  9
$PUCSNAME
  2

  9
$PUCSORG
 10
0.0
 20
0.0
 30
0.0
  9
$PUCSXDIR
 10
1.0
 20
0.0
 30
0.0
  9
$PUCSYDIR
 10
0.0
 20
1.0
 30
0.0
  9
$PUCSORTHOREF
  2

  9
$PUCSORTHOVIEW
 70
     0
  9
$PUCSORGTOP
 10
0.0
 20
0.0
 30
0.0
  9
$PUCSORGBOTTOM
 10
0.0
 20
0.0
 30
0.0
  9
$PUCSORGLEFT
 10
0.0
 20
0.0
 30
0.0
  9
$PUCSORGRIGHT
 10
0.0
 20
0.0
 30
0.0
  9
$PUCSORGFRONT
 10
0.0
 20
0.0
 30
0.0
  9
$PUCSORGBACK
 10
0.0
 20
0.0
 30
0.0
  9
$USERI1
 70
     0
  9
$USERI2
 70
     0
  9
$USERI3
 70
     0
  9
$USERI4
 70
     0
  9
$USERI5
 70
     0
  9
$USERR1
 40
0.0
  9
$USERR2
 40
0.0
  9
$USERR3
 40
0.0
  9
$USERR4
 40
0.0
  9
$USERR5
 40
0.0
  9
$WORLDVIEW
 70
     1
  9
$SHADEDGE
 70
     3
  9
$SHADEDIF
 70
    70
  9
$TILEMODE
 70
     1
  9
$MAXACTVP
 70
    64
  9
$PINSBASE
 10
0.0
 20
0.0
 30
0.0
  9
$PLIMCHECK
 70
     0
  9
$PEXTMIN
 10
1.0000000000E+20
 20
1.0000000000E+20
 30
1.0000000000E+20
  9
$PEXTMAX
 10
-1.0000000000E+20
 20
-1.0000000000E+20
 30
-1.0000000000E+20
  9
$PLIMMIN
 10
0.0
 20
0.0
  9
$PLIMMAX
 10
420.0
 20
297.0
  9
$UNITMODE
 70
     0
  9
$VISRETAIN
 70
     1
  9
$PLINEGEN
 70
     0
  9
$PSLTSCALE
 70
     1
  9
$TREEDEPTH
 70
  3020
  9
$CMLSTYLE
  2
Standard
  9
$CMLJUST
 70
     0
  9
$CMLSCALE
 40
20.0
  9
$PROXYGRAPHICS
 70
     1
  9
$MEASUREMENT
 70
     1
  9
$CELWEIGHT
370
    -1
  9
$ENDCAPS
280
     0
  9
$JOINSTYLE
280
     0
  9
$LWDISPLAY
290
     1
  9
$INSUNITS
 70
     4
  9
$HYPERLINKBASE
  1

  9
$STYLESHEET
  1

  9
$XEDIT
290
     1
  9
$CEPSNTYPE
380
     0
  9
$PSTYLEMODE
290
     1
  9
$FINGERPRINTGUID
  2
{41001c75-0bbd-4af0-be55-5c88e69f6db3}
  9
$VERSIONGUID
  2
{FAEB1C32-E019-11D5-929B-00C0DF256EC4}
  9
$EXTNAMES
290
     1
  9
$PSVPSCALE
 40
0.0
  9
$OLESTARTUP
290
     0
  0
ENDSEC
  0
SECTION
  2
CLASSES
  0
CLASS
  1
ACDBDICTIONARYWDFLT
  2
AcDbDictionaryWithDefault
  3
ObjectDBX Classes
 90
        0
280
     0
281
     0
  0
CLASS
  1
VISUALSTYLE
  2
AcDbVisualStyle
  3
ObjectDBX Classes
 90
     4095
280
     0
281
     0
  0
CLASS
  1
MATERIAL
  2
AcDbMaterial
  3
ObjectDBX Classes
 90
     1153
280
     0
281
     0
  0
CLASS
  1
SCALE
  2
AcDbScale
  3
ObjectDBX Classes
 90
     1153
280
     0
281
     0
  0
CLASS
  1
TABLESTYLE
  2
AcDbTableStyle
  3
ObjectDBX Classes
 90
     4095
280
     0
281
     0
  0
CLASS
  1
MLEADERSTYLE
  2
AcDbMLeaderStyle
  3
ACDB_MLEADERSTYLE_CLASS
 90
     4095
280
     0
281
     0
  0
CLASS
  1
SUN
  2
AcDbSun
  3
SCENEOE
 90
     1153
280
     0
281
     0
  0
CLASS
  1
ACDBPLACEHOLDER
  2
AcDbPlaceHolder
  3
ObjectDBX Classes
 90
        0
280
     0
281
     0
  0
CLASS
  1
LAYOUT
  2
AcDbLayout
  3
ObjectDBX Classes
 90
        0
280
     0
281
     0
  0
ENDSEC
  0
SECTION
  2
TABLES
  0
TABLE
  2
VPORT
  5
8
330
0
100
AcDbSymbolTable
 70
     1
  0
VPORT
  5
29
330
8
100
AcDbSymbolTableRecord
100
AcDbViewportTableRecord
  2
*Active
 70
     0
 10
0.0
 20
0.0
 11
1.0
 21
1.0
 12
139.7
 22
107.95
 13
0.0
 23
0.0
 14
10.0
 24
10.0
 15
10.0
 25
10.0
 16
0.0
 26
0.0
 36
1.0
 17
0.0
 27
0.0
 37
0.0
 40
215.9
 41
1.2941176471
 42
50.0
 43
0.0
 44
0.0
 50
0.0
 51
0.0
 71
     0
 72
  2000
 73
     1
 74
     3
 75
     0
 76
     0
 77
     0
 78
     0
281
     0
 65
     1
110
0.0
120
0.0
130
0.0
111
1.0
121
0.0
131
0.0
112
0.0
122
1.0
132
0.0
 79
     0
146
0.0
  0
ENDTAB
  0
TABLE
  2
LTYPE
  5
5
330
0
100
AcDbSymbolTable
 70
     6
  0
LTYPE
  5
14
330
5
100
AcDbSymbolTableRecord
100
AcDbLinetypeTableRecord
  2
ByBlock
 70
     0
  3

 72
    65
 73
     0
 40
0.0
  0
LTYPE
  5
15
330
5
100
AcDbSymbolTableRecord
100
AcDbLinetypeTableRecord
  2
ByLayer
 70
     0
  3

 72
    65
 73
     0
 40
0.0
  0
LTYPE
  5
16
330
5
100
AcDbSymbolTableRecord
100
AcDbLinetypeTableRecord
  2
Continuous
 70
     0
  3
Solid line
 72
    65
 73
     0
 40
0.0
  0
LTYPE
  5
6E
330
5
100
AcDbSymbolTableRecord
100
AcDbLinetypeTableRecord
  2
HIDDEN
 70
     0
  3
Hidden __ __ __ __ __ __ __ __ __ __ __ __ __ __
 72
    65
 73
     2
 40
1.905
 49
1.27
 74
     0
 49
-0.635
 74
     0
  0
LTYPE
  5
6F
330
5
100
AcDbSymbolTableRecord
100
AcDbLinetypeTableRecord
  2
PHANTOM
 70
     0
  3
Phantom ______  __  __  ______  __  __  ______
 72
    65
 73
     6
 40
12.7
 49
6.35
 74
     0
 49
-1.27
 74
     0
 49
1.27
 74
     0
 49
-1.27
 74
     0
 49
1.27
 74
     0
 49
-1.27
 74
     0
  0
LTYPE
  5
70
330
5
100
AcDbSymbolTableRecord
100
AcDbLinetypeTableRecord
  2
CENTER
 70
     0
  3
Center ____ _ ____ _ ____ _ ____ _ ____ _ ____
 72
    65
 73
     4
 40
10.16
 49
6.35
 74
     0
 49
-1.27
 74
     0
 49
1.27
 74
     0
 49
-1.27
 74
     0
  0
LTYPE
  5
71
330
5
100
AcDbSymbolTableRecord
100
AcDbLinetypeTableRecord
  2
CENTERX2
 70
     0
  3
Center (2x) ________  __  ________  __  _____
 72
    65
 73
     4
 40
20.32
 49
12.7
 74
     0
 49
-2.54
 74
     0
 49
2.54
 74
     0
 49
-2.54
 74
     0
  0
LTYPE
  5
72
330
5
100
AcDbSymbolTableRecord
100
AcDbLinetypeTableRecord
  2
DOT2
 70
     0
  3
Dot (.5x) ........................................
 72
    65
 73
     2
 40
0.635
 49
0.0
 74
     0
 49
-0.635
 74
     0
  0
ENDTAB
  0
TABLE
  2
LAYER
  5
2
330
0
100
AcDbSymbolTable
 70
    17
  0
LAYER
  5
10
330
2
100
AcDbSymbolTableRecord
100
AcDbLayerTableRecord
  2
0
 70
     0
 62
     7
  6
Continuous
370
    -3
390
F
  0
LAYER
  5
73
330
2
100
AcDbSymbolTableRecord
100
AcDbLayerTableRecord
  2
FORMAT
 70
     0
 62
     7
  6
Continuous
370
    -3
390
F
  0
LAYER
  5
74
330
2
100
AcDbSymbolTableRecord
100
AcDbLayerTableRecord
  2
YARDIMCI_GEOMETRI
 70
     0
 62
    -6
  6
Continuous
290
     0
370
    -3
390
F
  0
LAYER
  5
75
330
2
100
AcDbSymbolTableRecord
100
AcDbLayerTableRecord
  2
SAYFA_CERCEVESI
 70
     0
 62
     7
  6
Continuous
370
    25
390
F
  0
LAYER
  5
76
330
2
100
AcDbSymbolTableRecord
100
AcDbLayerTableRecord
  2
ANTET
 70
     0
 62
     7
  6
Continuous
370
    -3
390
F
  0
LAYER
  5
77
330
2
100
AcDbSymbolTableRecord
100
AcDbLayerTableRecord
  2
OLCU
 70
     0
 62
   150
  6
Continuous
370
    -3
390
F
  0
LAYER
  5
78
330
2
100
AcDbSymbolTableRecord
100
AcDbLayerTableRecord
  2
METIN
 70
     0
 62
    96
  6
Continuous
370
    -3
390
F
  0
LAYER
  5
79
330
2
100
AcDbSymbolTableRecord
100
AcDbLayerTableRecord
  2
BALON
 70
     0
 62
     5
  6
Continuous
370
    -3
390
F
  0
LAYER
  5
7A
330
2
100
AcDbSymbolTableRecord
100
AcDbLayerTableRecord
  2
VURGU
 70
     0
 62
     7
  6
Continuous
370
    -3
390
F
  0
LAYER
  5
7B
330
2
100
AcDbSymbolTableRecord
100
AcDbLayerTableRecord
  2
SILIK
 70
     0
 62
     7
  6
Continuous
370
    -3
390
F
  0
LAYER
  5
7C
330
2
100
AcDbSymbolTableRecord
100
AcDbLayerTableRecord
  2
MODEL
 70
     0
 62
     7
  6
Continuous
370
    -3
390
F
  0
LAYER
  5
7D
330
2
100
AcDbSymbolTableRecord
100
AcDbLayerTableRecord
  2
DETAYLANDıRMA
 70
     0
 62
   190
  6
Continuous
370
    -3
390
F
  0
LAYER
  5
7E
330
2
100
AcDbSymbolTableRecord
100
AcDbLayerTableRecord
  2
TOLERANS
 70
     0
 62
   230
  6
Continuous
370
    -3
390
F
  0
LAYER
  5
7F
330
2
100
AcDbSymbolTableRecord
100
AcDbLayerTableRecord
  2
MERKEZ_CIZGILERI
 70
     0
 62
    30
  6
Continuous
370
    -3
390
F
  0
LAYER
  5
80
330
2
100
AcDbSymbolTableRecord
100
AcDbLayerTableRecord
  2
KESIT-DETAY_CIZGILERI
 70
     0
 62
     7
  6
Continuous
370
    -3
390
F
  0
LAYER
  5
81
330
2
100
AcDbSymbolTableRecord
100
AcDbLayerTableRecord
  2
\U+041E\U+0421\U+0415\U+0412\U+042B\U+0415
 70
     0
 62
     7
  6
Continuous
370
    -3
390
F
  0
LAYER
  5
82
330
2
100
AcDbSymbolTableRecord
100
AcDbLayerTableRecord
  2
\U+0412\U+041E\U+0414\U+042F\U+041D\U+042B\U+0415_\U+0417\U+041D\U+0410\U+041A\U+0418
 70
     0
 62
    11
  6
Continuous
370
    -3
390
F
  0
ENDTAB
  0
TABLE
  2
STYLE
  5
3
330
0
100
AcDbSymbolTable
 70
     1
  0
STYLE
  5
11
330
3
100
AcDbSymbolTableRecord
100
AcDbTextStyleTableRecord
  2
Standard
 70
     0
 40
0.0
 41
1.0
 50
0.0
 71
     0
 42
3.5
  3
txt
  4

  0
ENDTAB
  0
TABLE
  2
VIEW
  5
6
330
0
100
AcDbSymbolTable
 70
     0
  0
ENDTAB
  0
TABLE
  2
UCS
  5
7
330
0
100
AcDbSymbolTable
 70
     0
  0
ENDTAB
  0
TABLE
  2
APPID
  5
9
330
0
100
AcDbSymbolTable
 70
     1
  0
APPID
  5
12
330
9
100
AcDbSymbolTableRecord
100
AcDbRegAppTableRecord
  2
ACAD
 70
     0
  0
ENDTAB
  0
TABLE
  2
DIMSTYLE
  5
A
330
0
100
AcDbSymbolTable
 70
     1
100
AcDbDimStyleTable
  0
DIMSTYLE
105
27
330
A
100
AcDbSymbolTableRecord
100
AcDbDimStyleTableRecord
  2
ISO-25
 70
     0
 41
2.5
 42
0.625
 43
3.75
 44
1.25
 73
     0
 74
     0
 77
     1
 78
     8
140
2.5
141
2.5
143
0.0393700787
147
0.625
171
     3
172
     1
178
     0
271
     2
272
     2
274
     3
278
    44
283
     0
284
     8
340
11
  0
ENDTAB
  0
TABLE
  2
BLOCK_RECORD
  5
1
330
0
100
AcDbSymbolTable
 70
     2
  0
BLOCK_RECORD
  5
1F
330
1
100
AcDbSymbolTableRecord
100
AcDbBlockTableRecord
  2
*Model_Space
340
22
  0
BLOCK_RECORD
  5
1B
330
1
100
AcDbSymbolTableRecord
100
AcDbBlockTableRecord
  2
*Paper_Space
340
1E
  0
BLOCK_RECORD
  5
23
330
1
100
AcDbSymbolTableRecord
100
AcDbBlockTableRecord
  2
*Paper_Space0
340
26
  0
BLOCK_RECORD
  5
88
330
1
100
AcDbSymbolTableRecord
100
AcDbBlockTableRecord
  2
SW_CENTERMARKSYMBOL_0
340
0
102
{BLKREFS
331
93
102
}
  0
ENDTAB
  0
ENDSEC
  0
SECTION
  2
BLOCKS
  0
BLOCK
  5
20
330
1F
100
AcDbEntity
  8
0
100
AcDbBlockBegin
  2
*Model_Space
 70
     0
 10
0.0
 20
0.0
 30
0.0
  3
*Model_Space
  1

  0
ENDBLK
  5
21
330
1F
100
AcDbEntity
  8
0
100
AcDbBlockEnd
  0
BLOCK
  5
1C
330
1B
100
AcDbEntity
 67
     1
  8
0
100
AcDbBlockBegin
  2
*Paper_Space
 70
     0
 10
0.0
 20
0.0
 30
0.0
  3
*Paper_Space
  1

  0
ENDBLK
  5
1D
330
1B
100
AcDbEntity
 67
     1
  8
0
100
AcDbBlockEnd
  0
BLOCK
  5
24
330
23
100
AcDbEntity
  8
0
100
AcDbBlockBegin
  2
*Paper_Space0
 70
     0
 10
0.0
 20
0.0
 30
0.0
  3
*Paper_Space0
  1

  0
ENDBLK
  5
25
330
23
100
AcDbEntity
  8
0
100
AcDbBlockEnd
  0
BLOCK
  5
89
330
88
100
AcDbEntity
  8
0
100
AcDbBlockBegin
  2
SW_CENTERMARKSYMBOL_0
 70
     0
 10
0.0
 20
0.0
 30
0.0
  3
SW_CENTERMARKSYMBOL_0
  1

  0
LINE
  5
8B
330
88
100
AcDbEntity
  8
FORMAT
 62
     0
100
AcDbLine
 10
0.0
 20
0.0
 30
0.0
 11
0.0
 21
2.5
 31
0.0
  0
LINE
  5
8C
330
88
100
AcDbEntity
  8
FORMAT
 62
     0
100
AcDbLine
 10
0.0
 20
0.0
 30
0.0
 11
-2.5
 21
0.0
 31
0.0
  0
LINE
  5
8D
330
88
100
AcDbEntity
  8
FORMAT
 62
     0
100
AcDbLine
 10
0.0
 20
0.0
 30
0.0
 11
0.0
 21
-2.5
 31
0.0
  0
LINE
  5
8E
330
88
100
AcDbEntity
  8
FORMAT
 62
     0
100
AcDbLine
 10
0.0
 20
0.0
 30
0.0
 11
2.5
 21
0.0
 31
0.0
  0
LINE
  5
8F
330
88
100
AcDbEntity
  8
FORMAT
 62
     0
100
AcDbLine
 10
0.0
 20
5.0
 30
0.0
 11
0.0
 21
57.5
 31
0.0
  0
LINE
  5
90
330
88
100
AcDbEntity
  8
FORMAT
 62
     0
100
AcDbLine
 10
-5.0
 20
0.0
 30
0.0
 11
-57.5
 21
0.0
 31
0.0
  0
LINE
  5
91
330
88
100
AcDbEntity
  8
FORMAT
 62
     0
100
AcDbLine
 10
0.0
 20
-5.0
 30
0.0
 11
0.0
 21
-57.5
 31
0.0
  0
LINE
  5
92
330
88
100
AcDbEntity
  8
FORMAT
 62
     0
100
AcDbLine
 10
5.0
 20
0.0
 30
0.0
 11
57.5
 21
0.0
 31
0.0
  0
ENDBLK
  5
8A
330
88
100
AcDbEntity
  8
0
100
AcDbBlockEnd
  0
ENDSEC
  0
SECTION
  2
ENTITIES
  0
CIRCLE
  5
83
330
1F
100
AcDbEntity
  8
0
  6
Continuous
 62
     7
370
    25
100
AcDbCircle
 10
139.8323425481
 20
108.7440552885
 30
0.0
 40
45.00000000000001
  0
CIRCLE
  5
84
330
1F
100
AcDbEntity
  8
0
  6
Continuous
 62
     7
370
    25
100
AcDbCircle
 10
139.8323425481
 20
108.7440552885
 30
0.0
 40
55.00000000000003
  0
CIRCLE
  5
85
330
1F
100
AcDbEntity
  8
0
  6
Continuous
 62
     7
370
    25
100
AcDbCircle
 10
139.8323425481
 20
108.7440552885
 30
0.0
 40
44.00000000000001
  0
CIRCLE
  5
86
330
1F
100
AcDbEntity
  8
0
  6
Continuous
 62
     7
370
    25
100
AcDbCircle
 10
139.8323425481
 20
108.7440552885
 30
0.0
 40
78.0
  0
CIRCLE
  5
87
330
1F
100
AcDbEntity
  8
0
  6
Continuous
 62
     7
370
    25
100
AcDbCircle
 10
139.8323425481
 20
108.7440552885
 30
0.0
 40
78.50000000000003
  0
INSERT
  5
93
330
1F
100
AcDbEntity
  8
FORMAT
 62
     7
100
AcDbBlockReference
  2
SW_CENTERMARKSYMBOL_0
 10
139.8323425481
 20
108.7440552885
 30
0.0
  0
LINE
  5
94
330
1F
100
AcDbEntity
  8
0
  6
Continuous
 62
     7
370
    25
100
AcDbLine
 10
218.3323425481
 20
272.4595014781
 30
0.0
 11
218.3323425481
 21
313.9595014781
 31
0.0
  0
LINE
  5
95
330
1F
100
AcDbEntity
  8
0
  6
Continuous
 62
     7
370
    25
100
AcDbLine
 10
61.3323425481
 20
313.9595014781
 30
0.0
 11
61.3323425481
 21
272.4595014781
 31
0.0
  0
ARC
  5
96
330
1F
100
AcDbEntity
  8
0
  6
Continuous
 62
     7
370
    25
100
AcDbCircle
 10
217.8323425481
 20
313.9595014781
 30
0.0
 40
0.5000000000000284
100
AcDbArc
 50
0.0
 51
90.0
  0
ARC
  5
97
330
1F
100
AcDbEntity
  8
0
  6
Continuous
 62
     7
370
    25
100
AcDbCircle
 10
61.8323425481
 20
313.9595014781
 30
0.0
 40
0.5
100
AcDbArc
 50
90.0
 51
180.0
  0
LINE
  5
98
330
1F
100
AcDbEntity
  8
0
  6
Continuous
 62
     7
370
    25
100
AcDbLine
 10
194.8323425481
 20
314.4595014781
 30
0.0
 11
194.8323425481
 21
407.4595014781
 31
0.0
  0
LINE
  5
99
330
1F
100
AcDbEntity
  8
0
  6
Continuous
 62
     7
370
    25
100
AcDbLine
 10
84.8323425481
 20
407.4595014781
 30
0.0
 11
84.8323425481
 21
314.4595014781
 31
0.0
  0
LINE
  5
9A
330
1F
100
AcDbEntity
  8
0
  6
Continuous
 62
     7
370
    25
100
AcDbLine
 10
218.3323425481
 20
272.4595014781
 30
0.0
 11
61.3323425481
 21
272.4595014781
 31
0.0
  0
LINE
  5
9B
330
1F
100
AcDbEntity
  8
0
  6
Continuous
 62
     7
370
    25
100
AcDbLine
 10
217.832342548
 20
314.4595014781
 30
0.0
 11
61.8323425481
 21
314.4595014781
 31
0.0
  0
LINE
  5
9C
330
1F
100
AcDbEntity
  8
0
  6
Continuous
 62
     7
370
    25
100
AcDbLine
 10
79.8323425481
 20
271.4595014781
 30
0.0
 11
94.6768979818
 21
271.4595014781
 31
0.0
  0
LINE
  5
9D
330
1F
100
AcDbEntity
  8
0
  6
Continuous
 62
     7
370
    25
100
AcDbLine
 10
79.8323425481
 20
272.4595014781
 30
0.0
 11
79.8323425481
 21
271.4595014781
 31
0.0
  0
LINE
  5
9E
330
1F
100
AcDbEntity
  8
0
  6
Continuous
 62
     7
370
    25
100
AcDbLine
 10
139.8323425481
 20
272.4595014781
 30
0.0
 11
139.8323425481
 21
271.4595014781
 31
0.0
  0
LINE
  5
9F
330
1F
100
AcDbEntity
  8
0
  6
Continuous
 62
     7
370
    25
100
AcDbLine
 10
124.9877871143
 20
271.4595014781
 30
0.0
 11
139.8323425481
 21
271.4595014781
 31
0.0
  0
LINE
  5
A0
330
1F
100
AcDbEntity
  8
0
  6
Continuous
 62
     7
370
    25
100
AcDbLine
 10
124.9877871143
 20
260.4595014781
 30
0.0
 11
124.9877871143
 21
271.4595014781
 31
0.0
  0
LINE
  5
A1
330
1F
100
AcDbEntity
  8
0
  6
Continuous
 62
     7
370
    25
100
AcDbLine
 10
124.9877871143
 20
260.4595014781
 30
0.0
 11
94.6768979818
 21
260.4595014781
 31
0.0
  0
LINE
  5
A2
330
1F
100
AcDbEntity
  8
0
  6
Continuous
 62
     7
370
    25
100
AcDbLine
 10
94.6768979818
 20
271.4595014781
 30
0.0
 11
94.6768979818
 21
260.4595014781
 31
0.0
  0
LINE
  5
A3
330
1F
100
AcDbEntity
  8
0
  6
Continuous
 62
     7
370
    25
100
AcDbLine
 10
139.8323425481
 20
271.4595014781
 30
0.0
 11
154.6768979818
 21
271.4595014781
 31
0.0
  0
LINE
  5
A4
330
1F
100
AcDbEntity
  8
0
  6
Continuous
 62
     7
370
    25
100
AcDbLine
 10
199.8323425481
 20
272.4595014781
 30
0.0
 11
199.8323425481
 21
271.4595014781
 31
0.0
  0
LINE
  5
A5
330
1F
100
AcDbEntity
  8
0
  6
Continuous
 62
     7
370
    25
100
AcDbLine
 10
184.9877871143
 20
271.4595014781
 30
0.0
 11
199.8323425481
 21
271.4595014781
 31
0.0
  0
LINE
  5
A6
330
1F
100
AcDbEntity
  8
0
  6
Continuous
 62
     7
370
    25
100
AcDbLine
 10
184.9877871143
 20
260.4595014781
 30
0.0
 11
184.9877871143
 21
271.4595014781
 31
0.0
  0
LINE
  5
A7
330
1F
100
AcDbEntity
  8
0
  6
Continuous
 62
     7
370
    25
100
AcDbLine
 10
184.9877871143
 20
260.4595014781
 30
0.0
 11
154.6768979818
 21
260.4595014781
 31
0.0
  0
LINE
  5
A8
330
1F
100
AcDbEntity
  8
0
  6
Continuous
 62
     7
370
    25
100
AcDbLine
 10
154.6768979818
 20
271.4595014781
 30
0.0
 11
154.6768979818
 21
260.4595014781
 31
0.0
  0
LINE
  5
A9
330
1F
100
AcDbEntity
  8
0
  6
Continuous
 62
     7
370
    25
100
AcDbLine
 10
154.6768979818
 20
260.4595014781
 30
0.0
 11
124.9877871143
 21
260.4595014781
 31
0.0
  0
LINE
  5
AA
330
1F
100
AcDbEntity
  8
0
  6
Continuous
 62
     7
370
    25
100
AcDbLine
 10
194.8323425481
 20
407.4595014781
 30
0.0
 11
84.8323425481
 21
407.4595014781
 31
0.0
  0
LINE
  5
AB
330
1F
100
AcDbEntity
  8
0
  6
Continuous
 62
     7
370
    25
100
AcDbLine
 10
79.8323425481
 20
260.4595014781
 30
0.0
 11
79.8323425481
 21
271.4595014781
 31
0.0
  0
LINE
  5
AC
330
1F
100
AcDbEntity
  8
0
  6
Continuous
 62
     7
370
    25
100
AcDbLine
 10
94.6768979818
 20
260.4595014781
 30
0.0
 11
79.8323425481
 21
260.4595014781
 31
0.0
  0
LINE
  5
AD
330
1F
100
AcDbEntity
  8
0
  6
Continuous
 62
     7
370
    25
100
AcDbLine
 10
199.8323425481
 20
271.4595014781
 30
0.0
 11
199.8323425481
 21
260.4595014781
 31
0.0
  0
LINE
  5
AE
330
1F
100
AcDbEntity
  8
0
  6
Continuous
 62
     7
370
    25
100
AcDbLine
 10
199.8323425481
 20
260.4595014781
 30
0.0
 11
184.9877871143
 21
260.4595014781
 31
0.0
  0
LINE
  5
AF
330
1F
100
AcDbEntity
  8
0
  6
Continuous
 62
     1
370
    25
100
AcDbLine
 10
218.3323425481
 20
313.9595014781
 30
0.0
 11
61.3323425481
 21
313.9595014781
 31
0.0
  0
LINE
  5
B0
330
1F
100
AcDbEntity
  8
0
  6
Continuous
 62
     7
370
    25
100
AcDbLine
 10
350.1186651818
 20
30.2440552885
 30
0.0
 11
391.6186651818
 21
30.2440552885
 31
0.0
  0
LINE
  5
B1
330
1F
100
AcDbEntity
  8
0
  6
Continuous
 62
     7
370
    25
100
AcDbLine
 10
391.6186651818
 20
187.2440552885
 30
0.0
 11
350.1186651818
 21
187.2440552885
 31
0.0
  0
ARC
  5
B2
330
1F
100
AcDbEntity
  8
0
  6
Continuous
 62
     7
370
    25
100
AcDbCircle
 10
391.6186651818
 20
30.7440552885
 30
0.0
 40
0.5000000000000142
100
AcDbArc
 50
270.0
 51
0.0
  0
ARC
  5
B3
330
1F
100
AcDbEntity
  8
0
  6
Continuous
 62
     7
370
    25
100
AcDbCircle
 10
391.6186651818
 20
186.7440552885
 30
0.0
 40
0.5
100
AcDbArc
 50
0.0
 51
90.0
  0
LINE
  5
B4
330
1F
100
AcDbEntity
  8
0
  6
Continuous
 62
     7
370
    25
100
AcDbLine
 10
392.1186651818
 20
53.7440552885
 30
0.0
 11
485.1186651818
 21
53.7440552885
 31
0.0
  0
LINE
  5
B5
330
1F
100
AcDbEntity
  8
0
  6
Continuous
 62
     7
370
    25
100
AcDbLine
 10
485.1186651818
 20
163.7440552885
 30
0.0
 11
392.1186651818
 21
163.7440552885
 31
0.0
  0
LINE
  5
B6
330
1F
100
AcDbEntity
  8
0
  6
Continuous
 62
     7
370
    25
100
AcDbLine
 10
338.1186651818
 20
46.2440552885
 30
0.0
 11
349.1186651818
 21
46.2440552885
 31
0.0
  0
LINE
  5
B7
330
1F
100
AcDbEntity
  8
0
  6
Continuous
 62
     7
370
    25
100
AcDbLine
 10
349.1186651818
 20
171.2440552885
 30
0.0
 11
338.1186651818
 21
171.2440552885
 31
0.0
  0
LINE
  5
B8
330
1F
100
AcDbEntity
  8
0
  6
Continuous
 62
     7
370
    25
100
AcDbLine
 10
350.1186651818
 20
108.7440552885
 30
0.0
 11
350.1186651818
 21
187.2440552885
 31
0.0
  0
LINE
  5
B9
330
1F
100
AcDbEntity
  8
0
  6
Continuous
 62
     7
370
    25
100
AcDbLine
 10
350.1186651818
 20
30.2440552885
 30
0.0
 11
350.1186651818
 21
108.7440552885
 31
0.0
  0
LINE
  5
BA
330
1F
100
AcDbEntity
  8
0
  6
Continuous
 62
     7
370
    25
100
AcDbLine
 10
392.1186651818
 20
108.7440552885
 30
0.0
 11
392.1186651818
 21
186.7440552885
 31
0.0
  0
LINE
  5
BB
330
1F
100
AcDbEntity
  8
0
  6
Continuous
 62
     7
370
    25
100
AcDbLine
 10
392.1186651818
 20
30.7440552885
 30
0.0
 11
392.1186651818
 21
108.7440552885
 31
0.0
  0
LINE
  5
BC
330
1F
100
AcDbEntity
  8
0
  6
Continuous
 62
     7
370
    25
100
AcDbLine
 10
349.1186651818
 20
74.1030391371
 30
0.0
 11
349.1186651818
 21
65.5325310614
 31
0.0
  0
LINE
  5
BD
330
1F
100
AcDbEntity
  8
0
  6
Continuous
 62
     7
370
    25
100
AcDbLine
 10
350.1186651818
 20
74.1030391371
 30
0.0
 11
349.1186651818
 21
74.1030391371
 31
0.0
  0
LINE
  5
BE
330
1F
100
AcDbEntity
  8
0
  6
Continuous
 62
     7
370
    25
100
AcDbLine
 10
350.1186651818
 20
39.4620229857
 30
0.0
 11
349.1186651818
 21
39.4620229857
 31
0.0
  0
LINE
  5
BF
330
1F
100
AcDbEntity
  8
0
  6
Continuous
 62
     7
370
    25
100
AcDbLine
 10
349.1186651818
 20
48.0325310614
 30
0.0
 11
349.1186651818
 21
39.4620229857
 31
0.0
  0
LINE
  5
C0
330
1F
100
AcDbEntity
  8
0
  6
Continuous
 62
     7
370
    25
100
AcDbLine
 10
338.1186651818
 20
48.0325310614
 30
0.0
 11
349.1186651818
 21
48.0325310614
 31
0.0
  0
LINE
  5
C1
330
1F
100
AcDbEntity
  8
0
  6
Continuous
 62
     7
370
    25
100
AcDbLine
 10
338.1186651818
 20
48.0325310614
 30
0.0
 11
338.1186651818
 21
65.5325310614
 31
0.0
  0
LINE
  5
C2
330
1F
100
AcDbEntity
  8
0
  6
Continuous
 62
     7
370
    25
100
AcDbLine
 10
349.1186651818
 20
65.5325310614
 30
0.0
 11
338.1186651818
 21
65.5325310614
 31
0.0
  0
LINE
  5
C3
330
1F
100
AcDbEntity
  8
0
  6
Continuous
 62
     7
370
    25
100
AcDbLine
 10
349.1186651818
 20
143.3850714398
 30
0.0
 11
349.1186651818
 21
126.2440552885
 31
0.0
  0
LINE
  5
C4
330
1F
100
AcDbEntity
  8
0
  6
Continuous
 62
     7
370
    25
100
AcDbLine
 10
350.1186651818
 20
143.3850714398
 30
0.0
 11
349.1186651818
 21
143.3850714398
 31
0.0
  0
LINE
  5
C5
330
1F
100
AcDbEntity
  8
0
  6
Continuous
 62
     7
370
    25
100
AcDbLine
 10
349.1186651818
 20
91.2440552885
 30
0.0
 11
349.1186651818
 21
74.1030391371
 31
0.0
  0
LINE
  5
C6
330
1F
100
AcDbEntity
  8
0
  6
Continuous
 62
     7
370
    25
100
AcDbLine
 10
338.1186651818
 20
91.2440552885
 30
0.0
 11
349.1186651818
 21
91.2440552885
 31
0.0
  0
LINE
  5
C7
330
1F
100
AcDbEntity
  8
0
  6
Continuous
 62
     7
370
    25
100
AcDbLine
 10
338.1186651818
 20
91.2440552885
 30
0.0
 11
338.1186651818
 21
126.2440552885
 31
0.0
  0
LINE
  5
C8
330
1F
100
AcDbEntity
  8
0
  6
Continuous
 62
     7
370
    25
100
AcDbLine
 10
349.1186651818
 20
126.2440552885
 30
0.0
 11
338.1186651818
 21
126.2440552885
 31
0.0
  0
LINE
  5
C9
330
1F
100
AcDbEntity
  8
0
  6
Continuous
 62
     7
370
    25
100
AcDbLine
 10
338.1186651818
 20
65.5325310614
 30
0.0
 11
338.1186651818
 21
91.2440552885
 31
0.0
  0
LINE
  5
CA
330
1F
100
AcDbEntity
  8
0
  6
Continuous
 62
     7
370
    25
100
AcDbLine
 10
338.1186651818
 20
151.9555795155
 30
0.0
 11
349.1186651818
 21
151.9555795155
 31
0.0
  0
LINE
  5
CB
330
1F
100
AcDbEntity
  8
0
  6
Continuous
 62
     7
370
    25
100
AcDbLine
 10
338.1186651818
 20
126.2440552885
 30
0.0
 11
338.1186651818
 21
151.9555795155
 31
0.0
  0
LINE
  5
CC
330
1F
100
AcDbEntity
  8
0
  6
Continuous
 62
     7
370
    25
100
AcDbLine
 10
349.1186651818
 20
178.0260875912
 30
0.0
 11
349.1186651818
 21
169.4555795155
 31
0.0
  0
LINE
  5
CD
330
1F
100
AcDbEntity
  8
0
  6
Continuous
 62
     7
370
    25
100
AcDbLine
 10
350.1186651818
 20
178.0260875912
 30
0.0
 11
349.1186651818
 21
178.0260875912
 31
0.0
  0
LINE
  5
CE
330
1F
100
AcDbEntity
  8
0
  6
Continuous
 62
     7
370
    25
100
AcDbLine
 10
349.1186651818
 20
151.9555795155
 30
0.0
 11
349.1186651818
 21
143.3850714398
 31
0.0
  0
LINE
  5
CF
330
1F
100
AcDbEntity
  8
0
  6
Continuous
 62
     7
370
    25
100
AcDbLine
 10
349.1186651818
 20
169.4555795155
 30
0.0
 11
338.1186651818
 21
169.4555795155
 31
0.0
  0
LINE
  5
D0
330
1F
100
AcDbEntity
  8
0
  6
Continuous
 62
     7
370
    25
100
AcDbLine
 10
338.1186651818
 20
151.9555795155
 30
0.0
 11
338.1186651818
 21
169.4555795155
 31
0.0
  0
LINE
  5
D1
330
1F
100
AcDbEntity
  8
0
  6
Continuous
 62
     7
370
    25
100
AcDbLine
 10
485.1186651818
 20
108.7440552885
 30
0.0
 11
485.1186651818
 21
163.7440552885
 31
0.0
  0
LINE
  5
D2
330
1F
100
AcDbEntity
  8
0
  6
Continuous
 62
     7
370
    25
100
AcDbLine
 10
485.1186651818
 20
53.7440552885
 30
0.0
 11
485.1186651818
 21
108.7440552885
 31
0.0
  0
LINE
  5
D3
330
1F
100
AcDbEntity
  8
0
  6
Continuous
 62
     7
370
    25
100
AcDbLine
 10
338.1186651818
 20
46.2440552885
 30
0.0
 11
338.1186651818
 21
48.0325310614
 31
0.0
  0
LINE
  5
D4
330
1F
100
AcDbEntity
  8
0
  6
Continuous
 62
     7
370
    25
100
AcDbLine
 10
338.1186651818
 20
169.4555795155
 30
0.0
 11
338.1186651818
 21
171.2440552885
 31
0.0
  0
LINE
  5
D5
330
1F
100
AcDbEntity
  8
0
  6
Continuous
 62
     1
370
    25
100
AcDbLine
 10
391.6186651818
 20
108.7440552885
 30
0.0
 11
391.6186651818
 21
187.2440552885
 31
0.0
  0
LINE
  5
D6
330
1F
100
AcDbEntity
  8
0
  6
Continuous
 62
     1
370
    25
100
AcDbLine
 10
391.6186651818
 20
30.2440552885
 30
0.0
 11
391.6186651818
 21
108.7440552885
 31
0.0
  0
LINE
  5
D7
330
1F
100
AcDbEntity
  8
0
  6
Continuous
 62
     7
370
    25
100
AcDbLine
 10
-68.2777116933
 20
187.2440552885
 30
0.0
 11
-109.7777116933
 21
187.2440552885
 31
0.0
  0
LINE
  5
D8
330
1F
100
AcDbEntity
  8
0
  6
Continuous
 62
     7
370
    25
100
AcDbLine
 10
-109.7777116933
 20
30.2440552885
 30
0.0
 11
-68.2777116933
 21
30.2440552885
 31
0.0
  0
ARC
  5
D9
330
1F
100
AcDbEntity
  8
0
  6
Continuous
 62
     7
370
    25
100
AcDbCircle
 10
-109.7777116933
 20
186.7440552885
 30
0.0
 40
0.5000000000000142
100
AcDbArc
 50
90.0
 51
180.0
  0
ARC
  5
DA
330
1F
100
AcDbEntity
  8
0
  6
Continuous
 62
     7
370
    25
100
AcDbCircle
 10
-109.7777116933
 20
30.7440552885
 30
0.0
 40
0.5000000000000142
100
AcDbArc
 50
180.0
 51
270.0
  0
LINE
  5
DB
330
1F
100
AcDbEntity
  8
0
  6
Continuous
 62
     7
370
    25
100
AcDbLine
 10
-110.2777116933
 20
163.7440552885
 30
0.0
 11
-203.2777116933
 21
163.7440552885
 31
0.0
  0
LINE
  5
DC
330
1F
100
AcDbEntity
  8
0
  6
Continuous
 62
     7
370
    25
100
AcDbLine
 10
-203.2777116933
 20
53.7440552885
 30
0.0
 11
-110.2777116933
 21
53.7440552885
 31
0.0
  0
LINE
  5
DD
330
1F
100
AcDbEntity
  8
0
  6
Continuous
 62
     7
370
    25
100
AcDbLine
 10
-67.2777116933
 20
46.2440552885
 30
0.0
 11
-56.2777116933
 21
46.2440552885
 31
0.0
  0
LINE
  5
DE
330
1F
100
AcDbEntity
  8
0
  6
Continuous
 62
     7
370
    25
100
AcDbLine
 10
-56.2777116933
 20
171.2440552885
 30
0.0
 11
-67.2777116933
 21
171.2440552885
 31
0.0
  0
LINE
  5
DF
330
1F
100
AcDbEntity
  8
0
  6
Continuous
 62
     7
370
    25
100
AcDbLine
 10
-68.2777116933
 20
187.2440552885
 30
0.0
 11
-68.2777116933
 21
30.2440552885
 31
0.0
  0
LINE
  5
E0
330
1F
100
AcDbEntity
  8
0
  6
Continuous
 62
     7
370
    25
100
AcDbLine
 10
-110.2777116933
 20
186.7440552885
 30
0.0
 11
-110.2777116933
 21
30.7440552885
 31
0.0
  0
LINE
  5
E1
330
1F
100
AcDbEntity
  8
0
  6
Continuous
 62
     7
370
    25
100
AcDbLine
 10
-67.2777116933
 20
39.4620229857
 30
0.0
 11
-67.2777116933
 21
48.0325310614
 31
0.0
  0
LINE
  5
E2
330
1F
100
AcDbEntity
  8
0
  6
Continuous
 62
     7
370
    25
100
AcDbLine
 10
-68.2777116933
 20
39.4620229857
 30
0.0
 11
-67.2777116933
 21
39.4620229857
 31
0.0
  0
LINE
  5
E3
330
1F
100
AcDbEntity
  8
0
  6
Continuous
 62
     7
370
    25
100
AcDbLine
 10
-68.2777116933
 20
74.1030391371
 30
0.0
 11
-67.2777116933
 21
74.1030391371
 31
0.0
  0
LINE
  5
E4
330
1F
100
AcDbEntity
  8
0
  6
Continuous
 62
     7
370
    25
100
AcDbLine
 10
-67.2777116933
 20
65.5325310614
 30
0.0
 11
-67.2777116933
 21
74.1030391371
 31
0.0
  0
LINE
  5
E5
330
1F
100
AcDbEntity
  8
0
  6
Continuous
 62
     7
370
    25
100
AcDbLine
 10
-56.2777116933
 20
65.5325310614
 30
0.0
 11
-67.2777116933
 21
65.5325310614
 31
0.0
  0
LINE
  5
E6
330
1F
100
AcDbEntity
  8
0
  6
Continuous
 62
     7
370
    25
100
AcDbLine
 10
-56.2777116933
 20
65.5325310614
 30
0.0
 11
-56.2777116933
 21
48.0325310614
 31
0.0
  0
LINE
  5
E7
330
1F
100
AcDbEntity
  8
0
  6
Continuous
 62
     7
370
    25
100
AcDbLine
 10
-67.2777116933
 20
48.0325310614
 30
0.0
 11
-56.2777116933
 21
48.0325310614
 31
0.0
  0
LINE
  5
E8
330
1F
100
AcDbEntity
  8
0
  6
Continuous
 62
     7
370
    25
100
AcDbLine
 10
-56.2777116933
 20
91.2440552885
 30
0.0
 11
-56.2777116933
 21
65.5325310614
 31
0.0
  0
LINE
  5
E9
330
1F
100
AcDbEntity
  8
0
  6
Continuous
 62
     7
370
    25
100
AcDbLine
 10
-67.2777116933
 20
91.2440552885
 30
0.0
 11
-56.2777116933
 21
91.2440552885
 31
0.0
  0
LINE
  5
EA
330
1F
100
AcDbEntity
  8
0
  6
Continuous
 62
     7
370
    25
100
AcDbLine
 10
-67.2777116933
 20
74.1030391371
 30
0.0
 11
-67.2777116933
 21
91.2440552885
 31
0.0
  0
LINE
  5
EB
330
1F
100
AcDbEntity
  8
0
  6
Continuous
 62
     7
370
    25
100
AcDbLine
 10
-68.2777116933
 20
143.3850714398
 30
0.0
 11
-67.2777116933
 21
143.3850714398
 31
0.0
  0
LINE
  5
EC
330
1F
100
AcDbEntity
  8
0
  6
Continuous
 62
     7
370
    25
100
AcDbLine
 10
-67.2777116933
 20
126.2440552885
 30
0.0
 11
-67.2777116933
 21
143.3850714398
 31
0.0
  0
LINE
  5
ED
330
1F
100
AcDbEntity
  8
0
  6
Continuous
 62
     7
370
    25
100
AcDbLine
 10
-56.2777116933
 20
126.2440552885
 30
0.0
 11
-67.2777116933
 21
126.2440552885
 31
0.0
  0
LINE
  5
EE
330
1F
100
AcDbEntity
  8
0
  6
Continuous
 62
     7
370
    25
100
AcDbLine
 10
-56.2777116933
 20
126.2440552885
 30
0.0
 11
-56.2777116933
 21
91.2440552885
 31
0.0
  0
LINE
  5
EF
330
1F
100
AcDbEntity
  8
0
  6
Continuous
 62
     7
370
    25
100
AcDbLine
 10
-67.2777116933
 20
143.3850714398
 30
0.0
 11
-67.2777116933
 21
151.9555795155
 31
0.0
  0
LINE
  5
F0
330
1F
100
AcDbEntity
  8
0
  6
Continuous
 62
     7
370
    25
100
AcDbLine
 10
-68.2777116933
 20
178.0260875912
 30
0.0
 11
-67.2777116933
 21
178.0260875912
 31
0.0
  0
LINE
  5
F1
330
1F
100
AcDbEntity
  8
0
  6
Continuous
 62
     7
370
    25
100
AcDbLine
 10
-67.2777116933
 20
169.4555795155
 30
0.0
 11
-67.2777116933
 21
178.0260875912
 31
0.0
  0
LINE
  5
F2
330
1F
100
AcDbEntity
  8
0
  6
Continuous
 62
     7
370
    25
100
AcDbLine
 10
-56.2777116933
 20
169.4555795155
 30
0.0
 11
-67.2777116933
 21
169.4555795155
 31
0.0
  0
LINE
  5
F3
330
1F
100
AcDbEntity
  8
0
  6
Continuous
 62
     7
370
    25
100
AcDbLine
 10
-67.2777116933
 20
151.9555795155
 30
0.0
 11
-56.2777116933
 21
151.9555795155
 31
0.0
  0
LINE
  5
F4
330
1F
100
AcDbEntity
  8
0
  6
Continuous
 62
     7
370
    25
100
AcDbLine
 10
-56.2777116933
 20
169.4555795155
 30
0.0
 11
-56.2777116933
 21
151.9555795155
 31
0.0
  0
LINE
  5
F5
330
1F
100
AcDbEntity
  8
0
  6
Continuous
 62
     7
370
    25
100
AcDbLine
 10
-56.2777116933
 20
151.9555795155
 30
0.0
 11
-56.2777116933
 21
126.2440552885
 31
0.0
  0
LINE
  5
F6
330
1F
100
AcDbEntity
  8
0
  6
Continuous
 62
     7
370
    25
100
AcDbLine
 10
-203.2777116933
 20
163.7440552885
 30
0.0
 11
-203.2777116933
 21
53.7440552885
 31
0.0
  0
LINE
  5
F7
330
1F
100
AcDbEntity
  8
0
  6
Continuous
 62
     7
370
    25
100
AcDbLine
 10
-56.2777116933
 20
48.0325310614
 30
0.0
 11
-56.2777116933
 21
46.2440552885
 31
0.0
  0
LINE
  5
F8
330
1F
100
AcDbEntity
  8
0
  6
Continuous
 62
     7
370
    25
100
AcDbLine
 10
-56.2777116933
 20
171.2440552885
 30
0.0
 11
-56.2777116933
 21
169.4555795155
 31
0.0
  0
LINE
  5
F9
330
1F
100
AcDbEntity
  8
0
  6
Continuous
 62
     1
370
    25
100
AcDbLine
 10
-109.7777116933
 20
187.2440552885
 30
0.0
 11
-109.7777116933
 21
30.2440552885
 31
0.0
  0
LINE
  5
FA
330
1F
100
AcDbEntity
  8
0
  6
Continuous
 62
     7
370
    25
100
AcDbLine
 10
419.884417507
 20
-76.3823703532
 30
0.0
 11
354.1234868566
 21
-38.4193931534
 31
0.0
  0
LINE
  5
FB
330
1F
100
AcDbEntity
  8
0
  6
Continuous
 62
     7
370
    25
100
AcDbLine
 10
299.1279565616
 20
-133.6847680153
 30
0.0
 11
364.888887212
 21
-171.647745215
 31
0.0
  0
SPLINE
  5
FC
330
1F
100
AcDbEntity
  8
0
  6
Continuous
 62
     7
370
    25
100
AcDbSpline
210
0.0
220
0.0
230
1.0
 70
     8
 71
     3
 72
    19
 73
    15
 74
     0
 42
0.00000001
 43
0.00000001
 40
0.0
 40
0.0
 40
0.0
 40
0.0
 40
0.0548500144083081
 40
0.1429759478682783
 40
0.2311699555541653
 40
0.3194253476422396
 40
0.4077333951987906
 40
0.4960845528883082
 40
0.5844693975857997
 40
0.6728792559448756
 40
0.7613065550139889
 40
0.8497449586161347
 40
0.9381893568936456
 40
1.0
 40
1.0
 40
1.0
 40
1.0
 10
419.7267602801575
 20
-52.61150578867696
 30
0.0
 10
419.2649123838551
 20
-52.57798111694623
 30
0.0
 10
418.0610268159636
 20
-52.49059332371802
 30
0.0
 10
416.0546960201
 20
-52.51871703900651
 30
0.0
 10
413.7197913753146
 20
-52.6774247110165
 30
0.0
 10
411.3384738001971
 20
-52.99250669613961
 30
0.0
 10
408.9187601711155
 20
-53.4552832855972
 30
0.0
 10
406.4650342458348
 20
-54.06699653408128
 30
0.0
 10
403.9827496804558
 20
-54.82564570412529
 30
0.0
 10
401.4771446470492
 20
-55.73019752485511
 30
0.0
 10
398.9535367591219
 20
-56.77697857046085
 30
0.0
 10
396.4173176357741
 20
-57.9699674863561
 30
0.0
 10
394.1289506634795
 20
-59.15146088090431
 30
0.0
 10
392.6878507094778
 20
-59.99350256305949
 30
0.0
 10
392.0950232468051
 20
-60.33989452047403
 30
0.0
  0
LINE
  5
FD
330
1F
100
AcDbEntity
  8
0
  6
Continuous
 62
     7
370
    25
100
AcDbLine
 10
337.0932011873
 20
-155.601637224
 30
0.0
 11
337.0858768175
 21
-156.0590761731
 31
0.0
  0
SPLINE
  5
FE
330
1F
100
AcDbEntity
  8
0
  6
Continuous
 62
     7
370
    25
100
AcDbSpline
210
0.0
220
0.0
230
1.0
 70
     8
 71
     3
 72
    19
 73
    15
 74
     0
 42
0.00000001
 43
0.00000001
 40
0.0
 40
0.0
 40
0.0
 40
0.0
 40
0.0470493570506257
 40
0.1364195295170259
 40
0.2257995915853054
 40
0.3151792163880167
 40
0.4045540562917809
 40
0.4939188608592088
 40
0.5832670864162701
 40
0.6725908704996794
 40
0.761881154411855
 40
0.8511280246158871
 40
0.9403213404426324
 40
1.0
 40
1.0
 40
1.0
 40
1.0
 10
337.0858768175231
 20
-156.0590761731478
 30
0.0
 10
337.0891291105291
 20
-156.572955841565
 30
0.0
 10
337.0985591284834
 20
-158.062949052703
 30
0.0
 10
337.2033421881347
 20
-160.4767049939226
 30
0.0
 10
337.4383958013985
 20
-163.2707920981056
 30
0.0
 10
337.791192359245
 20
-165.98285036601
 30
0.0
 10
338.2590693689754
 20
-168.6081844769413
 30
0.0
 10
338.8416975055255
 20
-171.1408906475982
 30
0.0
 10
339.537684214614
 20
-173.5757573584013
 30
0.0
 10
340.34601785532
 20
-175.907098324677
 30
0.0
 10
341.2636397452679
 20
-178.1315120658235
 30
0.0
 10
342.2936662022913
 20
-180.2381104880648
 30
0.0
 10
343.2915025483427
 20
-182.0240462124234
 30
0.0
 10
343.9897601272699
 20
-183.0536774237267
 30
0.0
 10
344.2696722882299
 20
-183.4664281135088
 30
0.0
  0
LINE
  5
FF
330
1F
100
AcDbEntity
  8
0
  6
Continuous
 62
     7
370
    25
100
AcDbLine
 10
461.3319474253
 20
-73.1747924355
 30
0.0
 11
431.987016006
 21
-56.2343241152
 31
0.0
  0
LINE
  5
100
330
1F
100
AcDbEntity
  8
0
  6
Continuous
 62
     7
370
    25
100
AcDbLine
 10
353.4933954941
 20
-192.2039955089
 30
0.0
 11
382.8383269134
 21
-209.1444638293
 31
0.0
  0
LWPOLYLINE
  5
101
330
1F
100
AcDbEntity
  8
0
  6
Continuous
 62
     7
370
    25
100
AcDbPolyline
 90
       99
 70
   128
 43
0.0
 10
294.8059165557
 20
-104.4212631004
 10
294.8712937581
 20
-102.02930392
 10
295.0671567162
 20
-99.5716909018
 10
295.3927005871
 20
-97.0585229048
 10
295.8465876413
 20
-94.5001270755
 10
296.4269527595
 20
-91.9070164111
 10
297.131411097
 20
-89.2898465595
 10
297.9570678832
 20
-86.659372033
 10
298.9005303174
 20
-84.0264020156
 10
299.9579215101
 20
-81.401755946
 10
301.124896414
 20
-78.7962190578
 10
302.396659679
 20
-76.2204980611
 10
303.767985357
 20
-73.6851771458
 10
305.2332383766
 20
-71.2006744894
 10
306.7863976989
 20
-68.7771994462
 10
308.421081059
 20
-66.4247105951
 10
310.1305711925
 20
-64.1528748174
 10
311.9078434377
 20
-61.9710275735
 10
313.7455946016
 20
-59.8881345418
 10
315.6362729707
 20
-57.9127547765
 10
317.5721093418
 20
-56.0530055369
 10
319.5451489481
 20
-54.3165289314
 10
321.5472841467
 20
-52.7104605149
 10
323.5702877345
 20
-51.241399967
 10
325.6058467559
 20
-49.9153839727
 10
327.6455966623
 20
-48.737861416
 10
329.6811556838
 20
-47.7136709897
 10
331.7041592716
 20
-46.8470213121
 10
333.7062944702
 20
-46.1414736324
 10
335.6793340765
 20
-45.5999271976
 10
337.6151704476
 20
-45.2246073379
 10
339.5058488166
 20
-45.0170563233
 10
341.3435999806
 20
-44.9781270253
 10
343.1208722257
 20
-45.1079794129
 10
344.8303623592
 20
-45.4060798947
 10
346.4650457194
 20
-45.8712035118
 10
348.0182050417
 20
-46.5014389716
 10
349.4834580613
 20
-47.2941965013
 10
350.8547837393
 20
-48.2462184903
 10
352.1265470042
 20
-49.353592876
 10
353.2935219082
 20
-50.6117692195
 10
354.3509131008
 20
-52.0155774043
 10
355.2943755351
 20
-53.5592488815
 10
356.1200323213
 20
-55.2364403738
 10
356.8244906587
 20
-57.0402599417
 10
357.4048557769
 20
-58.9632953036
 10
357.8587428311
 20
-60.9976442948
 10
358.1842867021
 20
-63.1349473388
 10
358.3801496602
 20
-65.3664217991
 10
358.4455268625
 20
-67.6828980683
 10
358.3801496602
 20
-70.0748572487
 10
358.1842867021
 20
-72.5324702669
 10
357.8587428311
 20
-75.0456382639
 10
357.4048557769
 20
-77.6040340932
 10
356.8244906587
 20
-80.1971447576
 10
356.1200323213
 20
-82.8143146092
 10
355.2943755351
 20
-85.4447891357
 10
354.3509131008
 20
-88.0777591531
 10
353.2935219082
 20
-90.7024052227
 10
352.1265470042
 20
-93.3079421109
 10
350.8547837393
 20
-95.8836631076
 10
349.4834580613
 20
-98.418984023
 10
348.0182050417
 20
-100.9034866794
 10
346.4650457194
 20
-103.3269617225
 10
344.8303623592
 20
-105.6794505736
 10
343.1208722257
 20
-107.9512863513
 10
341.3435999806
 20
-110.1331335952
 10
339.5058488166
 20
-112.2160266269
 10
337.6151704476
 20
-114.1914063922
 10
335.6793340765
 20
-116.0511556318
 10
333.7062944702
 20
-117.7876322373
 10
331.7041592716
 20
-119.3937006538
 10
329.6811556838
 20
-120.8627612017
 10
327.6455966623
 20
-122.188777196
 10
325.6058467559
 20
-123.3662997527
 10
323.5702877345
 20
-124.390490179
 10
321.5472841467
 20
-125.2571398566
 10
319.5451489481
 20
-125.9626875363
 10
317.5721093418
 20
-126.5042339711
 10
315.6362729707
 20
-126.8795538308
 10
313.7455946016
 20
-127.0871048454
 10
311.9078434377
 20
-127.1260341434
 10
310.1305711925
 20
-126.9961817558
 10
308.421081059
 20
-126.698081274
 10
306.7863976989
 20
-126.2329576569
 10
305.2332383766
 20
-125.6027221971
 10
303.767985357
 20
-124.8099646674
 10
302.396659679
 20
-123.8579426784
 10
301.124896414
 20
-122.7505682927
 10
299.9579215101
 20
-121.4923919492
 10
298.9005303174
 20
-120.0885837644
 10
297.9570678832
 20
-118.5449122872
 10
297.131411097
 20
-116.8677207949
 10
296.4269527595
 20
-115.063901227
 10
295.8465876413
 20
-113.1408658651
 10
295.3927005871
 20
-111.1065168739
 10
295.0671567162
 20
-108.9692138299
 10
294.8712937581
 20
-106.7377393696
 10
294.8059165557
 20
-104.4212631004
  0
LWPOLYLINE
  5
102
330
1F
100
AcDbEntity
  8
0
  6
Continuous
 62
     7
370
    25
100
AcDbPolyline
 90
      110
 70
   128
 43
0.0
 10
287.7348487439
 20
-108.5033036595
 10
287.7994445283
 20
-105.8786738243
 10
287.993017301
 20
-103.1881820403
 10
288.3149240325
 20
-100.4407658505
 10
288.7640953812
 20
-97.6455518953
 10
289.339039245
 20
-94.8118255943
 10
290.0378457181
 20
-91.9490003013
 10
290.8581934358
 20
-89.066586034
 10
291.7973572854
 20
-86.1741578828
 10
292.8522174591
 20
-83.2813242031
 10
294.0192698175
 20
-80.3976946975
 10
295.2946375299
 20
-77.5328484931
 10
296.6740839532
 20
-74.6963023209
 10
298.1530267049
 20
-71.8974789022
 10
299.7265528861
 20
-69.1456756468
 10
301.389435401
 20
-66.4500337684
 10
303.1361503211
 20
-63.8195079182
 10
304.9608952351
 20
-61.2628364386
 10
306.8576085239
 20
-58.788512335
 10
308.8199894967
 20
-56.4047550634
 10
310.8415193212
 20
-54.1194832257
 10
312.9154826788
 20
-51.9402882651
 10
315.0349900716
 20
-49.8744092481
 10
317.1930007093
 20
-47.928708817
 10
319.3823458975
 20
-46.109650393
 10
321.5957528518
 20
-44.4232767053
 10
323.8258688567
 20
-42.8751897176
 10
326.0652856913
 20
-41.4705320193
 10
328.3065642379
 20
-40.2139697419
 10
330.5422591947
 20
-39.109677059
 10
332.7649438079
 20
-38.1613223198
 10
334.9672345426
 20
-37.3720558634
 10
337.1418156106
 20
-36.7444995536
 10
339.2814632722
 20
-36.2807380692
 10
341.379069833
 20
-35.9823119795
 10
343.4276672551
 20
-35.8502126257
 10
345.4204503038
 20
-35.8848788287
 10
347.3507991541
 20
-36.0861954308
 10
349.2123013815
 20
-36.4534936785
 10
350.9987732626
 20
-36.985553444
 10
352.7042803175
 20
-37.6806072783
 10
354.3231570234
 20
-38.5363462823
 10
355.8500256345
 20
-39.5499277773
 10
357.279814047
 20
-40.7179847473
 10
358.6077726475
 20
-42.0366370247
 10
359.8294900911
 20
-43.5015041791
 10
360.9409079553
 20
-45.1077200692
 10
361.9383342217
 20
-46.8499490073
 10
362.8184555406
 20
-48.7224034842
 10
363.5783482374
 20
-50.7188633942
 10
364.2154880251
 20
-52.8326966985
 10
364.7277583893
 20
-55.0568814553
 10
365.1134576195
 20
-57.3840291465
 10
365.3713044615
 20
-59.8064092216
 10
365.5004423741
 20
-62.3159747775
 10
365.5004423741
 20
-64.9043892899
 10
365.3713044615
 20
-67.5630543061
 10
365.1134576195
 20
-70.2831380081
 10
364.7277583893
 20
-73.0556045516
 10
364.2154880251
 20
-75.8712440815
 10
363.5783482374
 20
-78.7207033263
 10
362.8184555406
 20
-81.5945166692
 10
361.9383342217
 20
-84.4831375911
 10
360.9409079553
 20
-87.3769703838
 10
359.8294900911
 20
-90.2664020259
 10
358.6077726475
 20
-93.1418341159
 10
357.279814047
 20
-95.9937147577
 10
355.8500256345
 20
-98.8125702906
 10
354.3231570234
 20
-101.58903676
 10
352.7042803175
 20
-104.3138910234
 10
350.9987732626
 20
-106.978081389
 10
349.2123013815
 20
-109.5727576844
 10
347.3507991541
 20
-112.0893006559
 10
345.4204503038
 20
-114.5193506007
 10
343.4276672551
 20
-116.8548351374
 10
341.379069833
 20
-119.0879960211
 10
339.2814632722
 20
-121.2114149161
 10
337.1418156106
 20
-123.2180380382
 10
334.9672345426
 20
-125.1011995873
 10
332.7649438079
 20
-126.8546438901
 10
330.5422591947
 20
-128.4725461809
 10
328.3065642379
 20
-129.9495319511
 10
326.0652856913
 20
-131.2806948024
 10
323.8258688567
 20
-132.4616127457
 10
321.5957528518
 20
-133.4883628904
 10
319.3823458975
 20
-134.3575344758
 10
317.1930007093
 20
-135.0662402012
 10
315.0349900716
 20
-135.6121258175
 10
312.9154826788
 20
-135.9933779476
 10
310.8415193212
 20
-136.2087301102
 10
308.8199894967
 20
-136.2574669271
 10
306.8576085239
 20
-136.1394264996
 10
304.9608952351
 20
-135.855000946
 10
303.1361503211
 20
-135.4051350995
 10
301.389435401
 20
-134.791323369
 10
299.7265528861
 20
-134.0156047756
 10
298.1530267049
 20
-133.0805561783
 10
296.6740839532
 20
-131.9892837145
 10
295.2946375299
 20
-130.7454124816
 10
294.0192698175
 20
-129.3530744948
 10
292.8522174591
 20
-127.8168949608
 10
291.7973572854
 20
-126.1419769136
 10
290.8581934358
 20
-124.3338842624
 10
290.0378457181
 20
-122.3986233092
 10
289.339039245
 20
-120.3426227964
 10
288.7640953812
 20
-118.1727125508
 10
288.3149240325
 20
-115.896100796
 10
287.993017301
 20
-113.5203502074
 10
287.7994445283
 20
-111.0533527894
 10
287.7348487439
 20
-108.5033036595
  0
LWPOLYLINE
  5
103
330
1F
100
AcDbEntity
  8
0
  6
Continuous
 62
     7
370
    25
100
AcDbPolyline
 90
       57
 70
   128
 43
0.0
 10
419.884417507
 20
-76.3823703532
 10
420.0840876737
 20
-76.4993234821
 10
421.6109562849
 20
-77.512904977
 10
423.0407446974
 20
-78.6809619471
 10
424.3687032979
 20
-79.9996142245
 10
425.5904207415
 20
-81.4644813789
 10
426.7018386056
 20
-83.070697269
 10
427.699264872
 20
-84.8129262071
 10
428.5793861909
 20
-86.6853806839
 10
429.3392788878
 20
-88.681840594
 10
429.9764186755
 20
-90.7956738982
 10
430.4886890397
 20
-93.019858655
 10
430.8743882698
 20
-95.3470063463
 10
431.1322351118
 20
-97.7693864214
 10
431.2613730244
 20
-100.2789519773
 10
431.2613730244
 20
-102.8673664897
 10
431.1322351118
 20
-105.5260315058
 10
430.8743882698
 20
-108.2461152079
 10
430.4886890397
 20
-111.0185817514
 10
429.9764186755
 20
-113.8342212812
 10
429.3392788878
 20
-116.6836805261
 10
428.5793861909
 20
-119.557493869
 10
427.699264872
 20
-122.4461147908
 10
426.7018386056
 20
-125.3399475836
 10
425.5904207415
 20
-128.2293792256
 10
424.3687032979
 20
-131.1048113157
 10
423.0407446974
 20
-133.9566919575
 10
421.6109562849
 20
-136.7755474904
 10
420.0840876737
 20
-139.5520139597
 10
418.4652109679
 20
-142.2768682231
 10
416.7597039129
 20
-144.9410585888
 10
414.9732320318
 20
-147.5357348842
 10
413.1117298045
 20
-150.0522778556
 10
411.1813809541
 20
-152.4823278005
 10
409.1885979054
 20
-154.8178123371
 10
407.1400004834
 20
-157.0509732209
 10
405.0423939225
 20
-159.1743921159
 10
402.9027462609
 20
-161.181015238
 10
400.728165193
 20
-163.0641767871
 10
398.5258744582
 20
-164.8176210899
 10
396.3031898451
 20
-166.4355233807
 10
394.0674948883
 20
-167.9125091509
 10
391.8262163416
 20
-169.2436720022
 10
389.5867995071
 20
-170.4245899455
 10
387.3566835021
 20
-171.4513400902
 10
385.1432765479
 20
-172.3205116755
 10
382.9539313596
 20
-173.0292174009
 10
380.795920722
 20
-173.5751030172
 10
378.6764133291
 20
-173.9563551473
 10
376.6024499716
 20
-174.1717073099
 10
374.580920147
 20
-174.2204441269
 10
372.6185391742
 20
-174.1024036994
 10
370.7218258854
 20
-173.8179781458
 10
368.8970809714
 20
-173.3681122992
 10
367.1503660514
 20
-172.7543005688
 10
365.4874835365
 20
-171.9785819753
 10
364.888887212
 20
-171.647745215
  0
ARC
  5
104
330
1F
100
AcDbEntity
  8
0
  6
Continuous
 62
     7
370
    25
100
AcDbCircle
 10
418.3201141353
 20
-79.9092188944
 30
0.0
 40
27.31656294246154
100
AcDbArc
 50
33.2199704214
 51
86.7450627438
  0
ARC
  5
105
330
1F
100
AcDbEntity
  8
0
  6
Continuous
 62
     7
370
    25
100
AcDbCircle
 10
367.1996119495
 20
-168.4684514115
 30
0.0
 40
27.38152797169303
100
AcDbArc
 50
213.4932684313
 51
267.0481788381
  0
LWPOLYLINE
  5
106
330
1F
100
AcDbEntity
  8
0
  6
Continuous
 62
     7
370
    25
100
AcDbPolyline
 90
       67
 70
   128
 43
0.0
 10
461.3319474253
 20
-73.1747924355
 10
461.8065200729
 20
-73.4554634477
 10
463.6333836964
 20
-74.669198925
 10
465.363209465
 20
-76.0382258806
 10
466.9919572905
 20
-77.5593468886
 10
468.5158231568
 20
-79.2290093003
 10
469.9312480046
 20
-81.0433135419
 10
471.2349260436
 20
-82.9980222217
 10
472.4238124733
 20
-85.0885700271
 10
473.4951305943
 20
-87.3100743868
 10
474.4463782937
 20
-89.6573468744
 10
475.2753338882
 20
-92.1249053262
 10
475.9800613136
 20
-94.7069866452
 10
476.5589146465
 20
-97.3975602607
 10
477.010541948
 20
-100.1903422136
 10
477.3338884217
 20
-103.078809832
 10
477.5281988769
 20
-106.056216966
 10
477.5930194925
 20
-109.1156097433
 10
477.5281988769
 20
-112.2498428104
 10
477.3338884217
 20
-115.4515960206
 10
477.010541948
 20
-118.713391531
 10
476.5589146465
 20
-122.0276112671
 10
475.9800613136
 20
-125.386514715
 10
475.2753338882
 20
-128.7822570002
 10
474.4463782937
 20
-132.2069072091
 10
473.4951305943
 20
-135.6524669126
 10
472.4238124733
 20
-139.1108888463
 10
471.2349260436
 20
-142.5740957056
 10
469.9312480046
 20
-146.0339990103
 10
468.5158231568
 20
-149.4825179959
 10
466.9919572905
 20
-152.9115984866
 10
465.363209465
 20
-156.313231706
 10
463.6333836964
 20
-159.6794729822
 10
461.8065200729
 20
-163.0024603025
 10
459.886885319
 20
-166.2744326763
 10
457.8789628309
 20
-169.4877482603
 10
455.7874422043
 20
-172.6349022071
 10
453.6172082828
 20
-175.708544193
 10
451.3733297481
 20
-178.7014955845
 10
449.0610472826
 20
-181.6067662051
 10
446.685761329
 20
-184.4175706606
 10
444.2530194779
 20
-187.127344187
 10
441.7685035105
 20
-189.7297579826
 10
439.2380161289
 20
-192.2187339893
 10
436.6674674038
 20
-194.5884590886
 10
434.0628609707
 20
-196.8333986775
 10
431.4302800087
 20
-198.9483095956
 10
428.7758730325
 20
-200.9282523705
 10
426.1058395328
 20
-202.7686027541
 10
423.4264154964
 20
-204.4650625227
 10
420.7438588423
 20
-206.0136695161
 10
418.0644348058
 20
-207.4108068908
 10
415.3944013061
 20
-208.6532115678
 10
412.73999433
 20
-209.7379818533
 10
410.1074133679
 20
-210.662584216
 10
407.5028069348
 20
-211.4248592044
 10
404.9322582097
 20
-212.0230264899
 10
402.4017708281
 20
-212.455689025
 10
399.9172548607
 20
-212.7218363064
 10
397.4845130096
 20
-212.8208467347
 10
395.109227056
 20
-212.7524890666
 10
392.7969445905
 20
-212.5169229544
 10
390.5530660558
 20
-212.1146985738
 10
388.3828321343
 20
-211.5467553385
 10
386.2913115078
 20
-210.8144197062
 10
384.2833890196
 20
-209.9194020806
 10
382.8383269134
 20
-209.1444638293
  0
LINE
  5
107
330
1F
100
AcDbEntity
  8
0
  6
Continuous
 62
     7
370
    25
100
AcDbLine
 10
462.5001396038
 20
-162.9094142601
 30
0.0
 11
462.0170379395
 21
-162.6305256056
 31
0.0
  0
LINE
  5
108
330
1F
100
AcDbEntity
  8
0
  6
Continuous
 62
     7
370
    25
100
AcDbLine
 10
462.5001396038
 20
-162.9094142601
 30
0.0
 11
460.1622380311
 21
-165.8177415906
 31
0.0
  0
ARC
  5
109
330
1F
100
AcDbEntity
  8
0
  6
Continuous
 62
     7
370
    25
100
AcDbCircle
 10
372.5837587461
 20
-112.2515861465
 30
0.0
 40
103.2045110241823
100
AcDbArc
 50
330.6036026925
 51
342.8950021179
  0
LINE
  5
10A
330
1F
100
AcDbEntity
  8
0
  6
Continuous
 62
     1
370
    25
100
AcDbLine
 10
337.2323234269
 20
-155.8549741452
 30
0.0
 11
337.2325263996
 21
-155.6820679571
 31
0.0
  0
LWPOLYLINE
  5
10B
330
1F
100
AcDbEntity
  8
0
  6
Continuous
 62
     1
370
    25
100
AcDbPolyline
 90
      100
 70
   128
 43
0.0
 10
392.2280566946
 20
-60.4166930952
 10
393.7193875125
 20
-59.5740994665
 10
396.3817451538
 20
-58.185861056
 10
399.0347720707
 20
-56.9513697846
 10
401.672271996
 20
-55.873508864
 10
404.2880849265
 20
-54.9547956882
 10
406.8761015097
 20
-54.1973759545
 10
409.430277313
 20
-53.6030186518
 10
411.9446469405
 20
-53.173111929
 10
414.4133379655
 20
-52.9086598532
 10
416.8305846456
 20
-52.8102800646
 10
419.1907413892
 20
-52.8782023336
 10
421.488295941
 20
-53.1122680247
 10
423.7178822557
 20
-53.5119304665
 10
425.8742930312
 20
-54.076256229
 10
427.9524918703
 20
-54.8039273031
 10
429.9476250433
 20
-55.6932441795
 10
431.8550328242
 20
-56.7421298172
 10
433.6702603737
 20
-57.9481344953
 10
435.3890681438
 20
-59.3084415339
 10
437.0074417793
 20
-60.819873873
 10
438.5216014936
 20
-62.4789014924
 10
439.9280108965
 20
-64.281649656
 10
441.2233852537
 20
-66.2239079621
 10
442.4046991583
 20
-68.3011401763
 10
443.4691935971
 20
-70.5084948267
 10
444.4143823939
 20
-72.8408165341
 10
445.2380580164
 20
-75.2926580531
 10
445.9382967322
 20
-77.8582929943
 10
446.5134631012
 20
-80.5317291983
 10
446.9622137957
 20
-83.306722731
 10
447.2835007377
 20
-86.1767924665
 10
447.4765735466
 20
-89.1352352239
 10
447.540981292
 20
-92.175141423
 10
447.4765735466
 20
-95.2894112221
 10
447.2835007377
 20
-98.4707710998
 10
446.9622137957
 20
-101.7117908426
 10
446.5134631012
 20
-105.0049008988
 10
445.9382967322
 20
-108.3424100573
 10
445.2380580164
 20
-111.7165234107
 10
444.4143823939
 20
-115.119360561
 10
443.4691935971
 20
-118.5429740244
 10
442.4046991583
 20
-121.9793677929
 10
441.2233852537
 20
-125.4205160097
 10
439.9280108965
 20
-128.8583817137
 10
438.5216014936
 20
-132.2849356103
 10
437.0074417793
 20
-135.692174824
 10
435.3890681438
 20
-139.0721415898
 10
433.6702603737
 20
-142.4169418387
 10
431.8550328242
 20
-145.7187636347
 10
429.9476250433
 20
-148.9698954201
 10
427.9524918703
 20
-152.1627440258
 10
425.8742930312
 20
-155.2898524062
 10
423.7178822557
 20
-158.3439170545
 10
421.488295941
 20
-161.3178050614
 10
419.1907413892
 20
-164.2045707736
 10
416.8305846456
 20
-166.997472016
 10
414.4133379655
 20
-169.6899858384
 10
411.9446469405
 20
-172.2758237499
 10
409.430277313
 20
-174.7489464063
 10
406.8761015097
 20
-177.1035777151
 10
404.2880849265
 20
-179.3342183257
 10
401.672271996
 20
-181.4356584736
 10
399.0347720707
 20
-183.4029901481
 10
396.3817451538
 20
-185.2316185547
 10
393.7193875125
 20
-186.9172728471
 10
391.0539172065
 20
-188.4560161017
 10
388.3915595652
 20
-189.8442545123
 10
385.7385326482
 20
-191.0787457836
 10
383.1010327229
 20
-192.1566067042
 10
380.4852197925
 20
-193.07531988
 10
377.8972032093
 20
-193.8327396137
 10
375.343027406
 20
-194.4270969164
 10
372.8286577784
 20
-194.8570036392
 10
370.3599667535
 20
-195.121455715
 10
367.9427200734
 20
-195.2198355036
 10
365.5825633297
 20
-195.1519132346
 10
363.285008778
 20
-194.9178475436
 10
361.0554224633
 20
-194.5181851017
 10
358.8990116877
 20
-193.9538593392
 10
356.8208128486
 20
-193.2261882651
 10
354.8256796757
 20
-192.3368713887
 10
352.9182718948
 20
-191.287985751
 10
351.1030443453
 20
-190.0819810729
 10
349.3842365752
 20
-188.7216740343
 10
347.7658629397
 20
-187.2102416952
 10
346.2517032254
 20
-185.5512140759
 10
344.8452938225
 20
-183.7484659122
 10
343.5499194653
 20
-181.8062076061
 10
342.3686055606
 20
-179.7289753919
 10
341.3041111219
 20
-177.5216207415
 10
340.3589223251
 20
-175.1892990341
 10
339.5352467025
 20
-172.7374575151
 10
338.8350079868
 20
-170.1718225739
 10
338.2598416178
 20
-167.4983863699
 10
337.8110909233
 20
-164.7233928372
 10
337.4898039813
 20
-161.8533231017
 10
337.2967311723
 20
-158.8948803443
 10
337.2323234269
 20
-155.8549741452
 10
337.2323234269
 20
-155.8549741452
  0
LWPOLYLINE
  5
10C
330
1F
100
AcDbEntity
  8
0
  6
Continuous
 62
     1
370
    25
100
AcDbPolyline
 90
       55
 70
   128
 43
0.0
 10
441.172424337
 20
-64.9437075622
 10
441.8899946244
 20
-66.0575539014
 10
443.078881054
 20
-68.1481017068
 10
444.1501991751
 20
-70.3696060665
 10
445.1014468744
 20
-72.716878554
 10
445.9304024689
 20
-75.1844370059
 10
446.6351298944
 20
-77.7665183248
 10
447.2139832273
 20
-80.4570919404
 10
447.6656105288
 20
-83.2498738932
 10
447.9889570025
 20
-86.1383415116
 10
448.1832674576
 20
-89.1157486457
 10
448.2480880732
 20
-92.175141423
 10
448.1832674576
 20
-95.3093744901
 10
447.9889570025
 20
-98.5111277003
 10
447.6656105288
 20
-101.7729232107
 10
447.2139832273
 20
-105.0871429468
 10
446.6351298944
 20
-108.4460463947
 10
445.9304024689
 20
-111.8417886799
 10
445.1014468744
 20
-115.2664388888
 10
444.1501991751
 20
-118.7119985923
 10
443.078881054
 20
-122.170420526
 10
441.8899946244
 20
-125.6336273853
 10
440.5863165854
 20
-129.0935306899
 10
439.1708917376
 20
-132.5420496756
 10
437.6470258713
 20
-135.9711301663
 10
436.0182780458
 20
-139.3727633857
 10
434.2884522772
 20
-142.7390046618
 10
432.4615886536
 20
-146.0619919822
 10
430.5419538998
 20
-149.3339643559
 10
428.5340314116
 20
-152.54727994
 10
426.4425107851
 20
-155.6944338868
 10
424.2722768636
 20
-158.7680758727
 10
422.0283983289
 20
-161.7610272642
 10
419.7161158633
 20
-164.6662978848
 10
417.3408299098
 20
-167.4771023403
 10
414.9080880587
 20
-170.1868758667
 10
412.4235720912
 20
-172.7892896622
 10
409.8930847097
 20
-175.278265669
 10
407.3225359845
 20
-177.6479907683
 10
404.7179295515
 20
-179.8929303571
 10
402.0853485894
 20
-182.0078412753
 10
399.4309416133
 20
-183.9877840502
 10
396.7609081136
 20
-185.8281344337
 10
394.0814840771
 20
-187.5245942024
 10
391.398927423
 20
-189.0732011958
 10
388.7195033866
 20
-190.4703385705
 10
386.0494698868
 20
-191.7127432475
 10
383.3950629107
 20
-192.797513533
 10
380.7624819487
 20
-193.7221158957
 10
378.1578755156
 20
-194.4843908841
 10
375.5873267905
 20
-195.0825581696
 10
373.0568394089
 20
-195.5152207047
 10
370.5723234415
 20
-195.7813679861
 10
368.1395815903
 20
-195.8803784144
 10
365.7895670108
 20
-195.8136492958
  0
LINE
  5
10D
330
1F
100
AcDbEntity
  8
0
  6
Continuous
 62
     7
370
    25
100
AcDbLine
 10
61.3323425481
 20
-69.7651476319
 30
0.0
 11
61.3323425481
 21
-111.2651476319
 31
0.0
  0
LINE
  5
10E
330
1F
100
AcDbEntity
  8
0
  6
Continuous
 62
     7
370
    25
100
AcDbLine
 10
218.3323425481
 20
-111.2651476319
 30
0.0
 11
218.3323425481
 21
-69.7651476319
 31
0.0
  0
ARC
  5
10F
330
1F
100
AcDbEntity
  8
0
  6
Continuous
 62
     7
370
    25
100
AcDbCircle
 10
61.8323425481
 20
-111.2651476319
 30
0.0
 40
0.5
100
AcDbArc
 50
180.0
 51
270.0
  0
ARC
  5
110
330
1F
100
AcDbEntity
  8
0
  6
Continuous
 62
     7
370
    25
100
AcDbCircle
 10
217.8323425481
 20
-111.2651476319
 30
0.0
 40
0.5000000000000284
100
AcDbArc
 50
270.0
 51
0.0
  0
LINE
  5
111
330
1F
100
AcDbEntity
  8
0
  6
Continuous
 62
     7
370
    25
100
AcDbLine
 10
84.8323425481
 20
-111.7651476319
 30
0.0
 11
84.8323425481
 21
-204.7651476319
 31
0.0
  0
LINE
  5
112
330
1F
100
AcDbEntity
  8
0
  6
Continuous
 62
     7
370
    25
100
AcDbLine
 10
194.8323425481
 20
-204.7651476319
 30
0.0
 11
194.8323425481
 21
-111.7651476319
 31
0.0
  0
LINE
  5
113
330
1F
100
AcDbEntity
  8
0
  6
Continuous
 62
     7
370
    25
100
AcDbLine
 10
61.3323425481
 20
-69.7651476319
 30
0.0
 11
218.3323425481
 21
-69.7651476319
 31
0.0
  0
LINE
  5
114
330
1F
100
AcDbEntity
  8
0
  6
Continuous
 62
     7
370
    25
100
AcDbLine
 10
61.8323425481
 20
-111.7651476319
 30
0.0
 11
217.8323425481
 21
-111.7651476319
 31
0.0
  0
LINE
  5
115
330
1F
100
AcDbEntity
  8
0
  6
Continuous
 62
     7
370
    25
100
AcDbLine
 10
139.8323425481
 20
-68.7651476319
 30
0.0
 11
124.9877871143
 21
-68.7651476319
 31
0.0
  0
LINE
  5
116
330
1F
100
AcDbEntity
  8
0
  6
Continuous
 62
     7
370
    25
100
AcDbLine
 10
139.8323425481
 20
-69.7651476319
 30
0.0
 11
139.8323425481
 21
-68.7651476319
 31
0.0
  0
LINE
  5
117
330
1F
100
AcDbEntity
  8
0
  6
Continuous
 62
     7
370
    25
100
AcDbLine
 10
79.8323425481
 20
-69.7651476319
 30
0.0
 11
79.8323425481
 21
-68.7651476319
 31
0.0
  0
LINE
  5
118
330
1F
100
AcDbEntity
  8
0
  6
Continuous
 62
     7
370
    25
100
AcDbLine
 10
94.6768979818
 20
-68.7651476319
 30
0.0
 11
79.8323425481
 21
-68.7651476319
 31
0.0
  0
LINE
  5
119
330
1F
100
AcDbEntity
  8
0
  6
Continuous
 62
     7
370
    25
100
AcDbLine
 10
94.6768979818
 20
-57.7651476319
 30
0.0
 11
94.6768979818
 21
-68.7651476319
 31
0.0
  0
LINE
  5
11A
330
1F
100
AcDbEntity
  8
0
  6
Continuous
 62
     7
370
    25
100
AcDbLine
 10
94.6768979818
 20
-57.7651476319
 30
0.0
 11
124.9877871143
 21
-57.7651476319
 31
0.0
  0
LINE
  5
11B
330
1F
100
AcDbEntity
  8
0
  6
Continuous
 62
     7
370
    25
100
AcDbLine
 10
124.9877871143
 20
-68.7651476319
 30
0.0
 11
124.9877871143
 21
-57.7651476319
 31
0.0
  0
LINE
  5
11C
330
1F
100
AcDbEntity
  8
0
  6
Continuous
 62
     7
370
    25
100
AcDbLine
 10
199.8323425481
 20
-68.7651476319
 30
0.0
 11
184.9877871143
 21
-68.7651476319
 31
0.0
  0
LINE
  5
11D
330
1F
100
AcDbEntity
  8
0
  6
Continuous
 62
     7
370
    25
100
AcDbLine
 10
199.8323425481
 20
-69.7651476319
 30
0.0
 11
199.8323425481
 21
-68.7651476319
 31
0.0
  0
LINE
  5
11E
330
1F
100
AcDbEntity
  8
0
  6
Continuous
 62
     7
370
    25
100
AcDbLine
 10
154.6768979818
 20
-68.7651476319
 30
0.0
 11
139.8323425481
 21
-68.7651476319
 31
0.0
  0
LINE
  5
11F
330
1F
100
AcDbEntity
  8
0
  6
Continuous
 62
     7
370
    25
100
AcDbLine
 10
154.6768979818
 20
-57.7651476319
 30
0.0
 11
154.6768979818
 21
-68.7651476319
 31
0.0
  0
LINE
  5
120
330
1F
100
AcDbEntity
  8
0
  6
Continuous
 62
     7
370
    25
100
AcDbLine
 10
154.6768979818
 20
-57.7651476319
 30
0.0
 11
184.9877871143
 21
-57.7651476319
 31
0.0
  0
LINE
  5
121
330
1F
100
AcDbEntity
  8
0
  6
Continuous
 62
     7
370
    25
100
AcDbLine
 10
184.9877871143
 20
-68.7651476319
 30
0.0
 11
184.9877871143
 21
-57.7651476319
 31
0.0
  0
LINE
  5
122
330
1F
100
AcDbEntity
  8
0
  6
Continuous
 62
     7
370
    25
100
AcDbLine
 10
124.9877871143
 20
-57.7651476319
 30
0.0
 11
154.6768979818
 21
-57.7651476319
 31
0.0
  0
LINE
  5
123
330
1F
100
AcDbEntity
  8
0
  6
Continuous
 62
     7
370
    25
100
AcDbLine
 10
84.8323425481
 20
-204.7651476319
 30
0.0
 11
194.8323425481
 21
-204.7651476319
 31
0.0
  0
LINE
  5
124
330
1F
100
AcDbEntity
  8
0
  6
Continuous
 62
     7
370
    25
100
AcDbLine
 10
199.8323425481
 20
-57.7651476319
 30
0.0
 11
199.8323425481
 21
-68.7651476319
 31
0.0
  0
LINE
  5
125
330
1F
100
AcDbEntity
  8
0
  6
Continuous
 62
     7
370
    25
100
AcDbLine
 10
184.9877871143
 20
-57.7651476319
 30
0.0
 11
199.8323425481
 21
-57.7651476319
 31
0.0
  0
LINE
  5
126
330
1F
100
AcDbEntity
  8
0
  6
Continuous
 62
     7
370
    25
100
AcDbLine
 10
79.8323425481
 20
-68.7651476319
 30
0.0
 11
79.8323425481
 21
-57.7651476319
 31
0.0
  0
LINE
  5
127
330
1F
100
AcDbEntity
  8
0
  6
Continuous
 62
     7
370
    25
100
AcDbLine
 10
79.8323425481
 20
-57.7651476319
 30
0.0
 11
94.6768979818
 21
-57.7651476319
 31
0.0
  0
LINE
  5
128
330
1F
100
AcDbEntity
  8
0
  6
Continuous
 62
     1
370
    25
100
AcDbLine
 10
61.3323425481
 20
-111.2651476319
 30
0.0
 11
218.3323425481
 21
-111.2651476319
 31
0.0
  0
ENDSEC
  0
SECTION
  2
OBJECTS
  0
DICTIONARY
  5
C
330
0
100
AcDbDictionary
281
     1
  3
ACAD_GROUP
350
D
  3
ACAD_LAYOUT
350
1A
  3
ACAD_MLINESTYLE
350
17
  3
ACAD_PLOTSETTINGS
350
19
  3
ACAD_PLOTSTYLENAME
350
E
  3
ACAD_SCALELIST
350
47
  3
DWGPROPS
350
129
  0
DICTIONARY
  5
D
102
{ACAD_REACTORS
330
C
102
}
330
C
100
AcDbDictionary
281
     1
  0
DICTIONARY
  5
1A
102
{ACAD_REACTORS
330
C
102
}
330
C
100
AcDbDictionary
281
     1
  3
Layout1
350
1E
  3
Layout2
350
26
  3
Model
350
22
  0
DICTIONARY
  5
17
102
{ACAD_REACTORS
330
C
102
}
330
C
100
AcDbDictionary
281
     1
  3
Standard
350
18
  0
DICTIONARY
  5
19
102
{ACAD_REACTORS
330
C
102
}
330
C
100
AcDbDictionary
281
     1
  0
ACDBDICTIONARYWDFLT
  5
E
102
{ACAD_REACTORS
330
C
102
}
330
C
100
AcDbDictionary
281
     1
  3
Normal
350
F
100
AcDbDictionaryWithDefault
340
F
  0
DICTIONARY
  5
47
102
{ACAD_REACTORS
330
C
102
}
330
C
100
AcDbDictionary
281
     1
  3
A0
350
48
  3
A1
350
49
  3
A2
350
4A
  3
A3
350
4B
  3
A4
350
4C
  3
A5
350
4D
  3
A6
350
4E
  3
A7
350
4F
  3
A8
350
50
  3
A9
350
51
  3
B0
350
52
  3
B1
350
53
  3
B2
350
54
  3
B3
350
55
  3
B4
350
56
  3
B5
350
57
  3
B6
350
58
  3
B7
350
59
  3
B8
350
5A
  3
B9
350
5B
  3
C0
350
5C
  3
C1
350
5D
  3
C2
350
5E
  3
C3
350
5F
  3
C4
350
60
  3
C5
350
61
  3
C6
350
62
  3
C7
350
63
  3
C8
350
64
  3
C9
350
65
  3
D0
350
66
  3
D1
350
67
  3
D2
350
68
  0
XRECORD
  5
129
102
{ACAD_REACTORS
330
C
102
}
330
C
100
AcDbXrecord
280
     1
  1
DWGPROPS COOKIE
  2

  3

  4

  6

  7

  8
b.kav
  9

300
=
301
=
302
=
303
=
304
=
305
=
306
=
307
=
308
=
309
=
 40
0.0
 41
2459935.584534479
 42
2459935.584534676
  1

 90
        0
  0
LAYOUT
  5
1E
102
{ACAD_REACTORS
330
1A
102
}
330
1A
100
AcDbPlotSettings
  1

  2
none_device
  4

  6

 40
0.0
 41
0.0
 42
0.0
 43
0.0
 44
0.0
 45
0.0
 46
0.0
 47
0.0
 48
0.0
 49
0.0
140
0.0
141
0.0
142
1.0
143
1.0
 70
   688
 72
     1
 73
     0
 74
     5
  7

 75
    16
147
1.0
148
0.0
149
0.0
100
AcDbLayout
  1
Layout1
 70
     1
 71
     1
 10
0.0
 20
0.0
 11
420.0
 21
297.0
 12
0.0
 22
0.0
 32
0.0
 14
1.0000000000E+20
 24
1.0000000000E+20
 34
1.0000000000E+20
 15
-1.0000000000E+20
 25
-1.0000000000E+20
 35
-1.0000000000E+20
146
0.0
 13
0.0
 23
0.0
 33
0.0
 16
1.0
 26
0.0
 36
0.0
 17
0.0
 27
1.0
 37
0.0
 76
     0
330
1B
  0
LAYOUT
  5
26
102
{ACAD_REACTORS
330
1A
102
}
330
1A
100
AcDbPlotSettings
  1

  2
none_device
  4

  6

 40
0.0
 41
0.0
 42
0.0
 43
0.0
 44
0.0
 45
0.0
 46
0.0
 47
0.0
 48
0.0
 49
0.0
140
0.0
141
0.0
142
1.0
143
1.0
 70
   688
 72
     1
 73
     0
 74
     5
  7

 75
    16
147
1.0
148
0.0
149
0.0
100
AcDbLayout
  1
Layout2
 70
     1
 71
     2
 10
0.0
 20
0.0
 11
0.0
 21
0.0
 12
0.0
 22
0.0
 32
0.0
 14
0.0
 24
0.0
 34
0.0
 15
0.0
 25
0.0
 35
0.0
146
0.0
 13
0.0
 23
0.0
 33
0.0
 16
1.0
 26
0.0
 36
0.0
 17
0.0
 27
1.0
 37
0.0
 76
     0
330
23
  0
LAYOUT
  5
22
102
{ACAD_REACTORS
330
1A
102
}
330
1A
100
AcDbPlotSettings
  1

  2
none_device
  4
Letter_(8.50_x_11.00_Inches)
  6

 40
6.35
 41
6.35
 42
6.35000508
 43
6.35000508
 44
215.9
 45
279.4
 46
0.0
 47
0.0
 48
0.0
 49
0.0
140
0.0
141
0.0
142
1.0
143
1.0
 70
  1712
 72
     1
 73
     0
 74
     0
  7

 75
     0
147
1.0
148
0.0
149
0.0
100
AcDbLayout
  1
Model
 70
     1
 71
     0
 10
0.0
 20
0.0
 11
279.4
 21
215.9
 12
0.0
 22
0.0
 32
0.0
 14
0.0
 24
0.0
 34
0.0
 15
279.4
 25
215.9
 35
0.0
146
0.0
 13
0.0
 23
0.0
 33
0.0
 16
1.0
 26
0.0
 36
0.0
 17
0.0
 27
1.0
 37
0.0
 76
     0
330
1F
331
29
  0
MLINESTYLE
  5
18
102
{ACAD_REACTORS
330
17
102
}
330
17
100
AcDbMlineStyle
  2
Standard
 70
     0
  3

 62
   256
 51
90.0
 52
90.0
 71
     2
 49
0.5
 62
   256
  6
BYLAYER
 49
-0.5
 62
   256
  6
BYLAYER
  0
ACDBPLACEHOLDER
  5
F
102
{ACAD_REACTORS
330
E
102
}
330
E
  0
SCALE
  5
48
102
{ACAD_REACTORS
330
47
102
}
330
47
100
AcDbScale
 70
     0
300
1:1
140
1.0
141
1.0
290
     1
  0
SCALE
  5
49
102
{ACAD_REACTORS
330
47
102
}
330
47
100
AcDbScale
 70
     0
300
1:2
140
1.0
141
2.0
290
     0
  0
SCALE
  5
4A
102
{ACAD_REACTORS
330
47
102
}
330
47
100
AcDbScale
 70
     0
300
1:4
140
1.0
141
4.0
290
     0
  0
SCALE
  5
4B
102
{ACAD_REACTORS
330
47
102
}
330
47
100
AcDbScale
 70
     0
300
1:5
140
1.0
141
5.0
290
     0
  0
SCALE
  5
4C
102
{ACAD_REACTORS
330
47
102
}
330
47
100
AcDbScale
 70
     0
300
1:8
140
1.0
141
8.0
290
     0
  0
SCALE
  5
4D
102
{ACAD_REACTORS
330
47
102
}
330
47
100
AcDbScale
 70
     0
300
1:10
140
1.0
141
10.0
290
     0
  0
SCALE
  5
4E
102
{ACAD_REACTORS
330
47
102
}
330
47
100
AcDbScale
 70
     0
300
1:16
140
1.0
141
16.0
290
     0
  0
SCALE
  5
4F
102
{ACAD_REACTORS
330
47
102
}
330
47
100
AcDbScale
 70
     0
300
1:20
140
1.0
141
20.0
290
     0
  0
SCALE
  5
50
102
{ACAD_REACTORS
330
47
102
}
330
47
100
AcDbScale
 70
     0
300
1:30
140
1.0
141
30.0
290
     0
  0
SCALE
  5
51
102
{ACAD_REACTORS
330
47
102
}
330
47
100
AcDbScale
 70
     0
300
1:40
140
1.0
141
40.0
290
     0
  0
SCALE
  5
52
102
{ACAD_REACTORS
330
47
102
}
330
47
100
AcDbScale
 70
     0
300
1:50
140
1.0
141
50.0
290
     0
  0
SCALE
  5
53
102
{ACAD_REACTORS
330
47
102
}
330
47
100
AcDbScale
 70
     0
300
1:100
140
1.0
141
100.0
290
     0
  0
SCALE
  5
54
102
{ACAD_REACTORS
330
47
102
}
330
47
100
AcDbScale
 70
     0
300
2:1
140
2.0
141
1.0
290
     0
  0
SCALE
  5
55
102
{ACAD_REACTORS
330
47
102
}
330
47
100
AcDbScale
 70
     0
300
4:1
140
4.0
141
1.0
290
     0
  0
SCALE
  5
56
102
{ACAD_REACTORS
330
47
102
}
330
47
100
AcDbScale
 70
     0
300
8:1
140
8.0
141
1.0
290
     0
  0
SCALE
  5
57
102
{ACAD_REACTORS
330
47
102
}
330
47
100
AcDbScale
 70
     0
300
10:1
140
10.0
141
1.0
290
     0
  0
SCALE
  5
58
102
{ACAD_REACTORS
330
47
102
}
330
47
100
AcDbScale
 70
     0
300
100:1
140
100.0
141
1.0
290
     0
  0
SCALE
  5
59
102
{ACAD_REACTORS
330
47
102
}
330
47
100
AcDbScale
 70
     0
300
1/128" = 1'-0"
140
0.0078125
141
12.0
290
     0
  0
SCALE
  5
5A
102
{ACAD_REACTORS
330
47
102
}
330
47
100
AcDbScale
 70
     0
300
1/64" = 1'-0"
140
0.015625
141
12.0
290
     0
  0
SCALE
  5
5B
102
{ACAD_REACTORS
330
47
102
}
330
47
100
AcDbScale
 70
     0
300
1/32" = 1'-0"
140
0.03125
141
12.0
290
     0
  0
SCALE
  5
5C
102
{ACAD_REACTORS
330
47
102
}
330
47
100
AcDbScale
 70
     0
300
1/16" = 1'-0"
140
0.0625
141
12.0
290
     0
  0
SCALE
  5
5D
102
{ACAD_REACTORS
330
47
102
}
330
47
100
AcDbScale
 70
     0
300
3/32" = 1'-0"
140
0.09375
141
12.0
290
     0
  0
SCALE
  5
5E
102
{ACAD_REACTORS
330
47
102
}
330
47
100
AcDbScale
 70
     0
300
1/8" = 1'-0"
140
0.125
141
12.0
290
     0
  0
SCALE
  5
5F
102
{ACAD_REACTORS
330
47
102
}
330
47
100
AcDbScale
 70
     0
300
3/16" = 1'-0"
140
0.1875
141
12.0
290
     0
  0
SCALE
  5
60
102
{ACAD_REACTORS
330
47
102
}
330
47
100
AcDbScale
 70
     0
300
1/4" = 1'-0"
140
0.25
141
12.0
290
     0
  0
SCALE
  5
61
102
{ACAD_REACTORS
330
47
102
}
330
47
100
AcDbScale
 70
     0
300
3/8" = 1'-0"
140
0.375
141
12.0
290
     0
  0
SCALE
  5
62
102
{ACAD_REACTORS
330
47
102
}
330
47
100
AcDbScale
 70
     0
300
1/2" = 1'-0"
140
0.5
141
12.0
290
     0
  0
SCALE
  5
63
102
{ACAD_REACTORS
330
47
102
}
330
47
100
AcDbScale
 70
     0
300
3/4" = 1'-0"
140
0.75
141
12.0
290
     0
  0
SCALE
  5
64
102
{ACAD_REACTORS
330
47
102
}
330
47
100
AcDbScale
 70
     0
300
1" = 1'-0"
140
1.0
141
12.0
290
     0
  0
SCALE
  5
65
102
{ACAD_REACTORS
330
47
102
}
330
47
100
AcDbScale
 70
     0
300
1-1/2" = 1'-0"
140
1.5
141
12.0
290
     0
  0
SCALE
  5
66
102
{ACAD_REACTORS
330
47
102
}
330
47
100
AcDbScale
 70
     0
300
3" = 1'-0"
140
3.0
141
12.0
290
     0
  0
SCALE
  5
67
102
{ACAD_REACTORS
330
47
102
}
330
47
100
AcDbScale
 70
     0
300
6" = 1'-0"
140
6.0
141
12.0
290
     0
  0
SCALE
  5
68
102
{ACAD_REACTORS
330
47
102
}
330
47
100
AcDbScale
 70
     0
300
1'-0" = 1'-0"
140
12.0
141
12.0
290
     0
  0
ENDSEC
  0
EOF
